» » »

Mxpx - Educated Guess Tabs

Artists:  A B C D E F G H I J K L M N O P Q R S T U V W X Y Z # 

Educated Guess Tabs

(ver. 1) Click to play this song!
Mxpx
 Rating:
4/5 (4 votes)

 Educated Guess lessons Tabs too difficult? Try these video lessons and learn fast
 
                7x
7x - mute after strumming
5x

Guitar 1's Parts
----------------
Intro:                 (2nd time)
e|-------------------|---------------------------------------|
B|-------------------|---------------------------------------|
G|------------3-----5|----------------3-----5x--3x-----------|
D|3-----7-----3-----5|----3-----7-----3-----5x--3x--7x--5x---|
A|3-----7-----1-----3|----3-----7-----1-----3x--1x--7x--5x---|
E|1-----5------------|----1-----5-------------------5x--3x---|

Verse: "Everything's gotten so complicated..." (4x)
e|----------------------|
B|----------------------|
G|------------3-----5---|
D|3-----7-----3-----5---|
A|3-----7-----1-----3---|
E|1-----5---------------|

Chorus: "All the things..."
e|--------------------------------------------------------------------|
B|--------------------------------------------------------------------|
G|3-3-3-3-3-3-------------7-7-7-7-7-7-5-5-5-5-5-5--3x--7x--5-5-5-5-5-5|
D|3-3-3-3-3-3-3-3-3-3-3-3-7-7-7-7-7-7-5-5-5-5-5-5--3x--7x--5-5-5-5-5-5|
A|1-1-1-1-1-1-3-3-3-3-3-3-5-5-5-5-5-5-3-3-3-3-3-3--1x--5x--3-3-3-3-3-3|
E|------------1-1-1-1-1-1---------------------------------------------|

Chorus Cont.
e|-------------------------|
B|-------------------------|
G|--------------------3----|
D|3--3--3-3-3-3-3-3-3-3-3--|
A|3--3--3-3-3-3-3-3-3-5-3--|
E|1--0--1-0-1-0-1-0-1---1--|

Verse (the same chords are used, just a different rhythm the last 4x)

Outro:(2x)
e|--------------------------------------------------------------------|
B|--------------------------------------------------------------------|
G|3-3-3-3-3-3-------------7-7-7-7-7-7-5-5-5-5-5-5--3x--7x--5-5-5-5-5-5|
D|3-3-3-3-3-3-3-3-3-3-3-3-7-7-7-7-7-7-5-5-5-5-5-5--3x--7x--5-5-5-5-5-5|
A|1-1-1-1-1-1-3-3-3-3-3-3-5-5-5-5-5-5-3-3-3-3-3-3--1x--5x--3-3-3-3-3-3|
E|------------1-1-1-1-1-1---------------------------------------------|

Outro cont.
e|-----------------------------------------------|
B|-----------------------------------------------|
G|3x--7x--5-5-5-5-5-5----------------------3-----|
D|3x--7x--5-5-5-5-5-5--3--3--3-3-3-3-3-3-3-3-3x--|
A|1x--5x--3-3-3-3-3-3--3--3--3-3-3-3-3-3-3-5-3x--|
E|---------------------1--0--1-0-1-0-1-0-1---1x--|

Guitar 2's Parts
----------------
Intro: (2nd time)
e|------------------------|
B|------------------------|
G|-10-----9-----7-----5x--|
D|--x-----x-----x-----x---|
A|--8-----7-----5-----3x--|
E|------------------------|
(also play this part on the last time of the first verse)
            
Submit corrections


        Educated Guess lessons Hard to play? Try these video lessons and learn fast Educated Guess lessons
        
↑ Back to top | Tablatures and chords for acoustic guitar and electric guitar, ukulele, drums are parodies/interpretations of the original songs. You may use it for private study, scholarship, research or language learning purposes only