Home » M » Mxpx »

Mxpx - Coming Home For Christmas Bass

Artists:  A B C D E F G H I J K L M N O P Q R S T U V W X Y Z # 

Coming Home For Christmas Bass

(ver. 1) Click to play this song!
Mxpx
 Rating:
4/5 (4 votes)
                
Intro:
G-----------|
D-----------|
A--0>-2>----|
E--------0~-|

Verse:
G-------------------------------------------|
D--------2-4----2-4----2-4----2h4-2---------|
A------------4>-----2>-----0>-------2-------|(Ring)
E--4>-5>------------------------------------|

Cont...(Play This Part 2x.)
G------------------------------------------|
D------------2-4----2-4----2-4----2h4-2----|
A--/7>-----------4>-----2>-----0>-------2--|
E------4>-5>-------------------------------|

1st Chorus:
G---------------------------------------------------|
D---------------------------------------------------|
A-7>-8>-9>--7-----7----7>-----4---6-----------------|
E-------------9-9---7>----4-5---7---5(Ring)-7-------|(Ring)

Play Cont...Verse 2x

2nd Chorus: Play 2x
G------------------------------------|
D------------------------------------|
A--7>-8>-9>--7-----7----7>-----4---6-|
E--------------9-9---7>----4-5---7---|

3rd Chorus: (Instrumental) Repeat Until End
G---------------------------------|
D---------------------------------|
A-----------4-4-2>-/7-------4---6-|
E--0>-1>-2>---------0>--4-5---7---|
            
Submit corrections

↑ Back to top | Tablatures and chords for acoustic guitar and electric guitar, ukulele, drums are parodies/interpretations of the original songs. You may use it for private study, scholarship, research or language learning purposes only