» » »

Mxpx - Christalena Tabs

Artists:  A B C D E F G H I J K L M N O P Q R S T U V W X Y Z # 

Christalena Tabs

(ver. 1) Click to play this song!
Mxpx
 Rating:
4/5 (4 votes)

 Christalena lessons Tabs too difficult? Try these video lessons and learn fast
 
                Standard Tuning

PM.. - Palm mute

~ - Let ring

-x-
-x- - mute
-x-

Easy song...

Intro
e---------------------------------------------------------------
b---------------------------------------------------------------
g---------------5-555555555555----------------7-777777-5-555555-
d-5-55555555555-5-555555555555-5-555555555555-7-777777-5-555555-
a-5-55555555555-3-333333333333-5-555555555555-5-555555-3-333333-
E-3-33333333333----------------3-333333333333-------------------
    PM.........   ............   ............   ......   ......

e----------------------------------------------------------
b----------------------------------------------------------
g---------------5-555555555555----------------777777777777-
d-2-22222222222-5-555555555555-2-222222222222-777777777777-
a-2-22222222222-3-333333333333-2-222222222222-555555555555-
E-0-00000000000----------------0-000000000000--------------
    PM.........   ............   ............   


Chorus: Play Twice
e-----------------------------------------------------------
b-----------------------------------------------------------
g---------------555555555555----------------7777777-5555555-
d-x-55555555555-555555555555-x-555555555555-7777777-5555555-
a-x-55555555555-333333333333-x-555555555555-5555555-3333333-
E-x-33333333333--------------x-333333333333-----------------

Verse:
e------------------------------------------------------------
b------------------------------------------------------------
g---------------5555555555555----------------7777777-5555555-
d-5-55555555555-5555555555555-5-555555555555-7777777-5555555-
a-5-55555555555-3333333333333-5-555555555555-5555555-3333333-
E-3-33333333333---------------3-333333333333-----------------
    PM.........                 ............   

e----------------------------------------------------------
b----------------------------------------------------------
g---------------5555555555555----------------777777777777--
d-2-22222222222-5555555555555-2-222222222222-777777777777--
a-2-22222222222-3333333333333-2-222222222222-555555555555--
E-0-00000000000---------------0-000000000000---------------
    PM.........                 ............   

Chorus: Play Twice
e-----------------------------------------------------------
b-----------------------------------------------------------
g---------------555555555555----------------7777777-5555555-
d-x-55555555555-555555555555-x-555555555555-7777777-5555555-
a-x-55555555555-333333333333-x-555555555555-5555555-3333333-
E-x-33333333333--------------x-333333333333-----------------

Verse:
e------------------------------------------------------------
b------------------------------------------------------------
g---------------5555555555555----------------7777777-5555555-
d-5-55555555555-5555555555555-5-555555555555-7777777-5555555-
a-5-55555555555-3333333333333-5-555555555555-5555555-3333333-
E-3-33333333333---------------3-333333333333-----------------
    PM.........                 ............   

Bridge:
e----------------------------------
b----------------------------------
g----5555555555555----777777777777-
d-2~-5555555555555-5~-777777777777-
a-2~-3333333333333-5~-555555555555-
E-0~---------------3~--------------

Chorus:
e-----------------------------------------------------------
b-----------------------------------------------------------
g---------------555555555555----------------7777777-5555555-
d-x-55555555555-555555555555-x-555555555555-7777777-5555555-
a-x-55555555555-333333333333-x-555555555555-5555555-3333333-
E-x-33333333333--------------x-333333333333-----------------

Outro:
e----------------------------------------
b----------------------------------------
g----------------------------------------
d-5~-------------5~--------------Pick--5-
a-5~-(Bass Solo)-5~-(Bass Solo)-Scr*pe-5-
E-3~-------------3~--------------------3-
            
Submit corrections


        Christalena lessons Hard to play? Try these video lessons and learn fast Christalena lessons
        
↑ Back to top | Tablatures and chords for acoustic guitar and electric guitar, ukulele, drums are parodies/interpretations of the original songs. You may use it for private study, scholarship, research or language learning purposes only