» » »

Mxpx - Bad Hair Day Tabs

Artists:  A B C D E F G H I J K L M N O P Q R S T U V W X Y Z # 

Bad Hair Day Tabs

(ver. 1) Click to play this song!
Mxpx
 Rating:
4/5 (4 votes)

 Bad Hair Day lessons Tabs too difficult? Try these video lessons and learn fast
 
                Album:Pokinatcha
Tuning:Standard

This is my first Tab so i hope its good, i seen nobody had done this song

yet, so i took a few minutes to try and figure it out and this is what i

got.
____________________________________________________________________________

Intro/Verse
Repeat 8 Times             
e|------------------------|
B|------------------------|Then every other time you play this after the 
G|------------------------|first time, for the D and A string power chord
D|-----------5-5-5-4-5----|play that D-5-  instead of D-4-
A|-----5-5-5-3-3-3-2-3----|          A-3-             A-2-
e|-----3-3-3--------------|          E---             E---


Pre-Chorus

e|----------------------------------------------------------------|
B|----------------------------------------------------------------|
G|----------------------------------------------------------------|
D|---------------------------------5-5-5-5-5-5-5-5-5-5-5-5-5-5----|
A|-----7-7-7-7-7-7-7-7-7-7-7-7-7-7-3-3-3-3-3-3-3-3-3-3-3-3-3-3----|
e|-----5-5-5-5-5-5-5-5-5-5-5-5-5-5--------------------------------|

Chorus
Repeat 4 Times
e|--------------------------|
B|--------------------------|
G|--------------------------|
D|------------5--5-5-4-5----|
A|-----5--5-5-3--3-3-2-3----|
e|-----3--3-3---------------|

Bridge/Interlude
Repeat 8 Times
e|----------------------|
B|----------------------|
G|----------------------|
D|------------7--7-7----|
A|-----5--5-5-5--5-5----|
e|-----3--3-3-----------|


Order:
Intro/Verse
Pre-Chorus
Chorus
Verse
Pre-Chorus
Chrous
Bridge/InterLude
Pre-Chorus
Chorus
Pre-Chorus
Chorus
            
Submit corrections


        Bad Hair Day lessons Hard to play? Try these video lessons and learn fast Bad Hair Day lessons
        
↑ Back to top | Tablatures and chords for acoustic guitar and electric guitar, ukulele, drums are parodies/interpretations of the original songs. You may use it for private study, scholarship, research or language learning purposes only