Home » M » Murphy Peter »

Murphy Peter - Strange Kind Of Love Tabs

Artists:  A B C D E F G H I J K L M N O P Q R S T U V W X Y Z # 

Strange Kind Of Love Tabs

(ver. 2) Click to play this song!
Murphy Peter
 Rating:
4/5 (4 votes)
                Lines: 34



(I haven't really figured the rhythm into it, but it's easy enough to pick out)

A rough sketch of the song...


The main verse uses these chords:

	Am /// C /// Em /// D ///

And then for the bridge thing use the D chord form:

	|-2------|-4------|-7------|-8---7--|
	|-3------|-5------|-8------|-8---8--|
	|-2------|-4------|-7------|-7---7--|
	|-0------|-0------|-0------|-0---0--|
	|-X------|-X------|-X------|-X---X--|
	|-X------|-X------|-X------|-X---X--|

	|-2------|-5------|-7------|-10--9--|
	|-3------|-6------|-8------|-10--10-|
	|-2------|-5------|-7------|-9---9--|
	|-0------|-0------|-0------|-0---0--|
	|-X------|-X------|-X------|-X---X--|
	|-X------|-X------|-X------|-X---X--|

I hope my memory serves you well...
            
Submit corrections

↑ Back to top | Tablatures and chords for acoustic guitar and electric guitar, ukulele, drums are parodies/interpretations of the original songs. You may use it for private study, scholarship, research or language learning purposes only