Home » M » Mumford And Sons »

Mumford And Sons - Snake Eyes Tabs

Artists:  A B C D E F G H I J K L M N O P Q R S T U V W X Y Z # 

Snake Eyes Tabs

(ver. 2) Click to play this song!
Mumford And Sons

Intro:
         Am               Am6          Am        
e|---------------------------------------------------------------------------|
C|---------------------------------------------------------------------------|
G|-------9-----9-----9-----9h----9h10---10----9----9-------------------------|
C|-----0-----0-----0-----0------0-----0-----0-----0------------------------==|
A|----0-0---0-0---0-0---0-0----0-0---0-0---0-0---0-0-------------------------|
C|---------------------------------------------------------------------------|
      G/C                       G           Em          F   
e|---------------------------------------------------------------------------|
C|---------------------------------------------------------------------------|
G|-------5-----5-----5-----5-----4-----4-----0-----0-----2-----2-----2-----2-|
C|-----0-----0-----0-----0-----0-----0-----0-----0-----0-----0-----0-----0---|
A|---------------------------------------------------------------------------|
C|----5-5---5-5---5-5---5-5---7-7---7-7---4-4---4-4---5-5---5-5---5-5---5-5--|
  
 


 Verse 1:
        Am               Am6          Am        
e|---------------------------------------------------------------------------|
C|---------------------------------------------------------------------------|
G|-------9-----9-----9-----9------9h10----10-----9-----9---------------------|
C|-----0-----0-----0-----0------0-------0-----0-----0------------------------|
A|----0-0---0-0---0-0---0-0----0-0-----0-0---0-0---0-0-----------------------|
C|---------------------------------------------------------------------------|
      G/C                       G           Em          F                        }x2
e|---------------------------------------------------------------------------|
C|---------------------------------------------------------------------------|
G|-------5-----5-----5-----5-----4-----4-----0-----0-----2-----2-----2-----2-|
C|-----0-----0-----0-----0-----0-----0-----0-----0-----0-----0-----0-----0---|
A|---------------------------------------------------------------------------|
C|----5-5---5-5---5-5---5-5---7-7---7-7---4-4---4-4---5-5---5-5---5-5---5-5--|


      Am          G           Em    F
e|------------------------------------------------------------------|
B|------------------------------------------------------------------|
G|-------9-----9-----4-----4-----0-----2-----2-----2 ---------------|
D|-----0-----0-----0-----0-----0-----0-----0-----0------------------|
A|----0-0---0-0-----------------------------------------------------|
E|----------------7-7---7-7---4-4---5-5---5-5---5-5-----------------|

       F-Em    Em
e|-----------------------------------|
B|-----------------------------------|
G|-------2p0-----0-----0-----0-------|
D|-----0-------0-----0-----0---------|
A|-----------------------------------|
E|----5-5-----4-4---4-4---4-4--------|

 Chorus: Single Strum
        F                Am         G                        F
           "It's in the eyes, I can tell you will always be danger"
e|------x----------------x----------x------------------------x-----------------|
B|------x----------------x----------x------------------------x-----------------|
G|------5----------------9----------7------------------------5-----------------|
D|------5----------------9----------7------------------------5-----------------| x2
A|------x----------------x----------x------------------------x-----------------|
E|------5----------------9----------7------------------------5-----------------|



 REPEAT INTRO 

 Verse:         Am               Am6          Am        
e|---------------------------------------------------------------------------|
C|---------------------------------------------------------------------------|
G|-------9-----9-----9-----9------9h10----10-----9-----9---------------------|
C|-----0-----0-----0-----0------0-------0-----0-----0------------------------|
A|----0-0---0-0---0-0---0-0----0-0-----0-0---0-0---0-0-----------------------|
C|---------------------------------------------------------------------------|
      G/C                       G           Em          F                         }x2
e|---------------------------------------------------------------------------|
C|---------------------------------------------------------------------------|
G|-------5-----5-----5-----5-----4-----4-----0-----0-----2-----2-----2-----2-|
C|-----0-----0-----0-----0-----0-----0-----0-----0-----0-----0-----0-----0---| 
A|---------------------------------------------------------------------------|
C|----5-5---5-5---5-5---5-5---7-7---7-7---4-4---4-4---5-5---5-5---5-5---5-5--|

 This part last of the verse is played differently
      Am          G           F
e|------------------------------------------------------|
B|------------------------------------------------------|
G|-------9-----9-----4-----4-----2-----2-----2-----2----|
D|-----0-----0-----0-----0-----0-----0-----0-----0------|
A|----0-0---0-0-----------------------------------------|
E|----------------7-7---7-7---5-5---5-5---5-5---5-5-----|

      Am          G           F                         G/C
e|-----------------------------------------------------------------------------|
B|-----------------------------------------------------------------------------|
G|-------9-----9-----4-----4-----2-----2-----2-----2s5----5-----5-----5-----5--|
D|-----0-----0-----0-----0-----0-----0-----0-----0-------0-----0-----0-----0---|
A|----0-0---0-0----------------------------------------------------------------|
E|----------------7-7---7-7---5-5---5-5---5-5---5-5-----7-7---7-7---7-7---7-7--|

        F                       G/C
e|-------------------------------------------------------|
B|-------------------------------------------------------|
G|--------2-----2-----2-----2s5----5-----5-----5-----5---|
D|-------0-----0-----0-----0-----0-----0-----0-----0-----|
A|-------------------------------------------------------|
E|------5-5---5-5---5-5---5-5---7-7---7-7---7-7---7-7----|


 Chorus: Single Strum until he says "Danger...", Strumming pattern is D-D-D-DU, Two counts per chord 
                                                                                Four counts on the final F
        F                Am         G                        F (Start strumming)
           "It's in the eyes, I can tell you will always be danger"
e|------x----------------x----------x------------------------x-----------------|
B|------x----------------x----------x------------------------x-----------------|
G|------5----------------9----------7------------------------5-----------------|
D|------5----------------9----------7------------------------5-----------------| 
A|------x----------------x----------x------------------------x-----------------|
E|------5----------------9----------7------------------------5-----------------|

 Verse 3:
        Am               Am6          Am        
e|---------------------------------------------------------------------------|
C|---------------------------------------------------------------------------|
G|-------9-----9-----9-----9------9h10----10-----9-----9---------------------|
C|-----0-----0-----0-----0------0-------0-----0-----0------------------------|
A|----0-0---0-0---0-0---0-0----0-0-----0-0---0-0---0-0-----------------------|       
C|---------------------------------------------------------------------------|
      G/C                       G           Em          F                       }x2
e|---------------------------------------------------------------------------|
C|---------------------------------------------------------------------------|
G|-------5-----5-----5-----5-----4-----4-----0-----0-----2-----2-----2-----2-|
C|-----0-----0-----0-----0-----0-----0-----0-----0-----0-----0-----0-----0---| 
A|---------------------------------------------------------------------------|
C|----5-5---5-5---5-5---5-5---7-7---7-7---4-4---4-4---5-5---5-5---5-5---5-5--|


      Am          G           Em    F
e|------------------------------------------------------------------|
B|------------------------------------------------------------------|
G|-------9-----9-----4-----4-----0-----2-----2-----2 ---------------|
D|-----0-----0-----0-----0-----0-----0-----0-----0------------------|
A|----0-0---0-0-----------------------------------------------------|
E|----------------7-7---7-7---4-4---5-5---5-5---5-5-----------------|

       F       C 
e|-----------------------------------|
B|-----------------------------------|
G|-------2s5-----5-----5-----5-------|
D|-----0-------0-----0-----0---------|
A|-----------------------------------|
E|----5-5-----7-7---7-7---7-7--------|  

  Repeat 2nd Chorus  

   
 Outro- D-D-D-DU One time per Chord
        F   F       Am  Am      G   Em    
e|------x---x-------x---x-------x---x---|
B|------x---x-------x---x-------x---x---|
G|------5---5-------9---9-------7---4---|
D|------5---5-------9---9-------7---4---|
A|------x---x-------x---x-------x---x---|
E|------5---5-------9---9-------7---4---|

        F   F       Am      G       F   F
e|------x---x-------x-------x-------x---x---|
B|------x---x-------x-------x-------x---x---|
G|------5---5-------9-------7-------5---5---|
D|------5---5-------9-------7-------5---5---|
A|------x---x-------x-------x-------x---x---|
E|------5---5-------9-------7-------5---5---|

        F  F       Am  Am      G   Em      F(Single Strum)    
e|------x---x-------x---x-------x---x-------x--|
B|------x---x-------x---x-------x---x-------x--|
G|------5---5-------9---9-------7---4-------5--|
D|------5---5-------9---9-------7---4-------5--|
A|------x---x-------x---x-------x---x-------x--|
E|------5---5-------9---9-------7---4-------5--|            
Submit corrections

↑ Back to top | Tablatures and chords for acoustic guitar and electric guitar, ukulele, drums are parodies/interpretations of the original songs. You may use it for private study, scholarship, research or language learning purposes only