Home » M » Mumford And Sons »

Mumford And Sons - Reminder Live Chords

Artists:  A B C D E F G H I J K L M N O P Q R S T U V W X Y Z # 

Reminder Live Chords

(ver. 3) Click to play this song!
Mumford And Sons
Play G C G like this:

e|--3--3----3----|
B|--0--0h1--1p0--|
G|--0--0----0----| 
D|--0--0h2--2p0--|
A|--0--0----0----|
E|--3--3----3----|

D/F#: 200232

Between Em and G C G only play the first 4 Strings of D/F#.




Intro
e|---------------------------------------------|
B|-----0-0-0-------0-0-0-----0-0-0-----0-0-0---|
G|-----0-0-0-------0-0-0-----0-0-0-----0-0-0---| 
D|-----0-0-0--0h2--2-2-2--0--0-0-0-----0-0-0---|
A|---------------------------------0h2---------|
E|--3------------------------------------------|

e|---------------------------------------------|
B|-----0-0-0-------0-0-0-----0-0-0-----0-0-0---|
G|-----0-0-0-------0-0-0-----0-0-0-----0-0-0---| 
D|-----0-0-0--0h2--2-2-2--0--0-0-0-----0-0-0---|
A|----------------------------------2----------|
E|--3------------------------------------------|

e|---------------------------------------------|
B|-----0-0-0-------0-0-0-----0-0-0-----0-0-0---|
G|-----0-0-0-------0-0-0-----0-0-0-----0-0-0---| 
D|-----0-0-0--0h2--2-2-2--0--0-0-0-----0-0-0---|
A|----------------------------------2----------|
E|--3------------------------------------------|



G            D/F#            G
Don't let me dark in your door
G              C         Em           Em         D/F#        G  C  G
Its not what I came here for, no it's not what I came here for
G                    D/F#           G
And I won't hear you cry when I'm gone
G                   C         Em             Em            D/F#          G  C  G
I won't know if I'm doing you wrong, I never know if I'm doing you wrong


G          D/F#           G    
A constant reminder of where I can find her
G                  C           Em
A light that might give up the way
Em          D/F#                G              C
Its all that I'm asking for, without her I'm lost
G           D/F#      G  
My love don't fade away


e|---------------------------------------------|
B|-----0-0-0-------0-0-0-----0-0-0-----0-0-0---|
G|-----0-0-0-------0-0-0-----0-0-0-----0-0-0---| 
D|-----0-0-0--0h2--2-2-2--0--0-0-0-----0-0-0---|
A|----------------------------------2----------|
E|--3------------------------------------------|


G               D/F#       G
Watch the world tear us apart
G                  C           Em            Em      D/F#          G  C  G
A stoic mind and a bleeding heart, you never see my bleeding heart
G                    C            G
And your lights always shinning on
G                       C       Em                  Em       D/F#      G  C  G           
But iv'e been traveling oh so long, well iv'e been traveling oh so long


G            D/F#         G    
A constant reminder of where I can find her
G                  C           Em
A light that might give up the way
Em               D/F#            G             C
Its all that I'm asking for, without her i'm lost
G            D/F#      G 
My love don't fade away
G            D/F#      G 
My love don't fade away            
Submit corrections

↑ Back to top | Tablatures and chords for acoustic guitar and electric guitar, ukulele, drums are parodies/interpretations of the original songs. You may use it for private study, scholarship, research or language learning purposes only