Home » M » Mumford And Sons »

Mumford And Sons - Not With Haste Tabs

Artists:  A B C D E F G H I J K L M N O P Q R S T U V W X Y Z # 

Not With Haste Tabs

(ver. 3) Click to play this song!
Mumford And Sons
Mumford & Sons
Babel
Not With Haste

Open D Tuning
Capo 2nd Fret

Here is a link to a video of me playing the song


Intro
|--2--0--2/4---------4---------4---------4\2---------2p0----------------|
|---------------0---------0---------0-----------0-----------0-----------|
|--1-----1/3---------3---------3---------3\1---------1p0----------------|
|--0--0--0-0--0---0--0--0---0--0--0---0--0-0--0---0--0----0---0---------|
|-----------------------------------------------------------------------|
|-----------------------------------------------------------------------|

|--0---------0---------5---------4---------2---------0---------0--------|
|-------0---------0---------0---------0---------0---------0---------0---|
|--0---------0---------5---------3---------1---------0---------0--------|
|--0--0---0--0--0---0--0--0---0--0--0---0--0--0---0--0--0---0--0--0---0-|
|-----------------------------------------------------------------------|
|-----------------------------------------------------------------------|

|--0--------------------------------------------------------------------|
|-------0---------------------------------------------------------------|
|--0--------------------------------------------------------------------|
|--0--0---0-------------------------------------------------------------|
|-----------------------------------------------------------------------|
|-----------------------------------------------------------------------|

Verse 1
|--2-----(0)-2/4---------4---------4---------4\2---------2p0------------|
|-------0-----------0---------0---------0-----------0-----------0-------|
|--1---------1/3---------3---------3---------3\1---------1p0------------|
|--0--0---0--0-0--0---0--0--0---0--0--0---0--0-0--0---0--0----0---0-----|
|-----------------------------------------------------------------------|
|-----------------------------------------------------------------------|

|--0---------0---------5---------4---------2---------0---------0--------|
|-------0---------0---------0---------0---------0---------0---------0---|
|--0---------0---------5---------3---------1---------0---------0--------|
|--0--0---0--0--0---0--0--0---0--0--0---0--0--0---0--0--0---0--0--0---0-|
|-----------------------------------------------------------------------|
|-----------------------------------------------------------------------|

|--0--------------------------------------------------------------------|
|-------0---------------------------------------------------------------|
|--0--------------------------------------------------------------------|
|--0--0---0-------------------------------------------------------------| 2x
|-----------------------------------------------------------------------|
|-----------------------------------------------------------------------|


"This aint no sham. I am what I am"
|-----------------------------------------------------------------------|
|--1---------0---------0---------0--------------------------------------|
|-------0---------0---------0---------0---------------------------------|
|-----------------------------------------------------------------------| 2x
|--2--2---2--0--0---0--0--0---0--0--0---0-------------------------------|
|-----------------------------------------------------------------------|

Intro 1x
Verse 2x

Chorus
|-----------------------------------------------------------------------|
|-----------------------------------------------------------------------|
|--5---------5---------0---------0--------------------------------------|
|-------0---------0---------0---------0---------------------------------| 3x
|-----------------------------------------------------------------------|
|--5--5---5--5--5---5--0--0---0--0--0---0-------------------------------|

|-----------------------------------------------------------------------|
|-----------------------------------------------------------------------|
|--7---------7---------7------------------------------------------------|
|-------0---------0-----------------------------------------------------|
|-----------------------------------------------------------------------|
|--7--7---7--7--7---7--7------------------------------------------------|


Verse (strummed)
|--2----0----2/4----4----2----0----5----4----2----0---------------------|
|--0----0----0-0----0----0----0----0----0----0----0---------------------|
|--1----0----1/3----3----1----0----5----3----1----0---------------------|
|--0----0----0-0----0----0----0----0----0----0----0---------------------| 3x
|--0----0----0-0----0----0----0----0----0----0----0---------------------|
|--0----0----0-0----0----0----0----0----0----0----0---------------------|


"This aint no sham. I am what I am...."
|--0----0---------------------------------------------------------------|
|--1----0---------------------------------------------------------------|
|--0----0---------------------------------------------------------------|
|--0----0---------------------------------------------------------------| 4x
|--2----0---------------------------------------------------------------|
|--0----0---------------------------------------------------------------|


Chorus (strummed)
|----0----0----0----0----0----0----0------------------------------------|
|----0----0----0----0----0----0----0------------------------------------|
|----5----0----5----0----5----0----7------------------------------------|
|----0----0----0----0----0----0----0------------------------------------| 2x
|----0----0----0----0----0----0----0------------------------------------|
|----5----0----5----0----5----0----7------------------------------------|


"Do not let my fickle flesh..."
|----0----0----0----0----0----0----0------------------------------------|
|----0----0----0----0----0----0----0------------------------------------|
|----8----0----8----0----5----7----8------------------------------------|
|----0----0----0----0----0----0----0------------------------------------|
|----0----0----0----0----0----0----0------------------------------------|
|----9----0----9----0----5----7----9------------------------------------|

Intro (strummed) 2x
            
Submit corrections

↑ Back to top | Tablatures and chords for acoustic guitar and electric guitar, ukulele, drums are parodies/interpretations of the original songs. You may use it for private study, scholarship, research or language learning purposes only