Home » M » Mumford And Sons »

Mumford And Sons - Ditmas Tabs

Artists:  A B C D E F G H I J K L M N O P Q R S T U V W X Y Z # 

Ditmas Tabs

(ver. 2) Click to play this song!
Mumford And Sons
Chords Used:

     Am    F     C    G/B    G
e|---0-----1-----0-----3-----3-----------------------------------|
B|---1-----1-----1-----0-----0-----------------------------------|
G|---2-----2-----0-----0-----0-----------------------------------|
D|---2-----3-----1-----0-----0-----------------------------------|
A|---0-----3-----3-----2-----2-----------------------------------|
E|---x-----1-----x-----0-----3-----------------------------------|



Verse 1

     Am                              F               C       
e|---------------------------------------------------------------------------|
B|-----------------------------------------1---------------------------------|
G|---------2-------2-------2-------2---------------2-------0-------0---------|
D|-----2-------2-------2-------2-------3-------3-------2-------2-------------|
A|---0---0---0---0---0---0---0---0---3---3---3---3---3---3---3---3-----------|
E|---------------------------------------------------------------------------|

     F               C       G/B     Am
e|---------------------------------------------------------------------------|
B|---------1-----------------------------------------------------------------|
G|-----------------2-------0-------0--------2-------2-------2----------------|
D|-----3-------3-------2-------0--------2-------2-------2--------------------|
A|---3---3---3---3---3---3---1---1----0---0---0---0---0---0------------------|
E|---------------------------------------------------------------------------|

     F       C
e|---------------------------------------------------------------------------|
B|---------------------------------------------------------------------------|
G|---------2-------0-------0-------0-------0---------------------------------|
D|-----3-------2-------2-------2-------2-------------------------------------|
A|---3---3---3---3---3---3---3---3---3---3-----------------------------------|
E|---------------------------------------------------------------------------|

     Am                              F               C       
e|---------------------------------------------------------------------------|
B|-----------------------------------------1---------------------------------|
G|---------2-------2-------2-------2---------------2-------0-------0---------|
D|-----2-------2-------2-------2-------3-------3-------2-------2-------------|
A|---0---0---0---0---0---0---0---0---3---3---3---3---3---3---3---3-----------|
E|---------------------------------------------------------------------------|

     F               C       G/B     Am
e|---------------------------------------------------------------------------|
B|---------1-----------------------------------------------------------------|
G|-----------------2-------0-------0--------2-------2-------2----------------|
D|-----3-------3-------2-------0--------2-------2-------2--------------------|
A|---3---3---3---3---3---3---1---1----0---0---0---0---0---0------------------|
E|---------------------------------------------------------------------------|

     F       C
e|---------------------------------------------------------------------------|
B|---------------------------------------------------------------------------|
G|---------2-------0-------0-------0-------0---------------------------------|
D|-----3-------2-------2-------2-------2-------------------------------------|
A|---3---3---3---3---3---3---3---3---3---3-----------------------------------|
E|---------------------------------------------------------------------------|



Chorus

                  F    C
But this is all I ever was
                    F    C            G      C
And this is all you came across those years ago
        F      C
Now you go too far
                        F         C            G       C
Don't tell me that I've changed because that's not the truth
    F       C     G
And now I'm losing you


Verse 2

     Am                              F               C       
e|---------------------------------------------------------------------------|
B|-----------------------------------------1---------------------------------|
G|---------2-------2-------2-------2---------------2-------0-------0---------|
D|-----2-------2-------2-------2-------3-------3-------2-------2-------------|
A|---0---0---0---0---0---0---0---0---3---3---3---3---3---3---3---3-----------|
E|---------------------------------------------------------------------------|

     F               C       G/B     Am
e|---------------------------------------------------------------------------|
B|---------1-----------------------------------------------------------------|
G|-----------------2-------0-------0--------2-------2-------2----------------|
D|-----3-------3-------2-------0--------2-------2-------2--------------------|
A|---3---3---3---3---3---3---1---1----0---0---0---0---0---0------------------|
E|---------------------------------------------------------------------------|

     F       C
e|---------------------------------------------------------------------------|
B|---------------------------------------------------------------------------|
G|---------2-------0-------0-------0-------0---------------------------------|
D|-----3-------2-------3-------3-------3-------------------------------------|
A|---3---3---3---3---3---3---3---3---3---3-----------------------------------|
E|---------------------------------------------------------------------------|

     Am                              F               C       
e|---------------------------------------------------------------------------|
B|-----------------------------------------1---------------------------------|
G|---------2-------2-------2-------2---------------2-------0-------0---------|
D|-----2-------2-------2-------2-------3-------3-------2-------2-------------|
A|---0---0---0---0---0---0---0---0---3---3---3---3---3---3---3---3-----------|
E|---------------------------------------------------------------------------|

     F               C       G/B     Am
e|---------------------------------------------------------------------------|
B|---------1-----------------------------------------------------------------|
G|-----------------2-------0-------0--------2-------2-------2----------------|
D|-----3-------3-------2-------0--------2-------2-------2--------------------|
A|---3---3---3---3---3---3---1---1----0---0---0---0---0---0------------------|
E|---------------------------------------------------------------------------|

     F       C
e|---------------------------------------------------------------------------|
B|---------------------------------------------------------------------------|
G|---------2-------0-------0-------0-------0---------------------------------|
D|-----3-------2-------2-------2-------2-------------------------------------|
A|---3---3---3---3---3---3---3---3---3---3-----------------------------------|
E|---------------------------------------------------------------------------|



Chorus

                  F    C
But this is all I ever was
                    F    C            G      C
And this is all you came across those years ago
        F      C
Now you go too far
                        F         C            G       C
Don't tell me that I've changed because that's not the truth
    F       C     G
And now I'm losing you


Bridge

                Am      F         C
Where I used to end was where you start
    Am       F    C
You were the only one
                   Am    F       C
And now I see your eyes move too fast
    Am       F    C
You were the only one


Verse 3

Am   F   C   F   C   G/B <--- Strum each lightly once (you'll hear it in the song)

     Am                      F       C
e|---------------------------------------------------------------------------|
B|---------------------------------------------------------------------------|
G|---------2-------2-------2-------2-------0-------0-------0-------0---------|
D|-----2-------2-------2-------3-------2-------2-------2-------2-------------|
A|---0---0---0---0---0---0---3---3---3---3---3---3---3---3---3---3-----------|
E|---------------------------------------------------------------------------|

     Am                      F       C
e|---------------------------------------------------------------------------|
B|---------------------------------------------------------------------------|
G|---------2-------2-------2-------2-------0-------0-------0-------0---------|
D|-----2-------2-------2-------3-------2-------2-------2-------2-------------|
A|---0---0---0---0---0---0---3---3---3---3---3---3---3---3---3---3-----------|
E|---------------------------------------------------------------------------|

     C
e|---------------------------------------------------------------------------|
B|---------------------------------------------------------------------------|
G|---------0-------0-------0-------0-------0---------------------------------|
D|-----2-------2-------2-------2-------2-------------------------------------|
A|---3---3---3---3---3---3---3---3---3---3-----------------------------------|
E|---------------------------------------------------------------------------|


Chorus

                  F    C
But this is all I ever was
                    F    C            G      C
And this is all you came across those years ago
        F      C
Now you go too far
                        F         C            G       C
Don't tell me that I've changed because that's not the truth
    F       C     G
And now I'm losing you
    F       C     G
And now I'm losing you


Outro 

e|-----5-8-7-----8-10-12---1515-1212-1010-1212---1515-1212-1010-88-----------|
B|---5---------5-------------------------------------------------------------|
G|---------------------------------------------------------------------------|
D|---------------------------------------------------------------------------|
A|---------------------------------------------------------------------------|
E|---------------------------------------------------------------------------|            
Submit corrections

↑ Back to top | Tablatures and chords for acoustic guitar and electric guitar, ukulele, drums are parodies/interpretations of the original songs. You may use it for private study, scholarship, research or language learning purposes only