Home » M » Mullins Shawn »

Mullins Shawn - Shimmer Tabs

Artists:  A B C D E F G H I J K L M N O P Q R S T U V W X Y Z # 

Shimmer Tabs

(ver. 1) Click to play this song!
Mullins Shawn


This is not very very accurate. atch out for the timing, is kind of tricky.

_________________________________________________________________________________________

Standard Tuning (E A D G B E)

Capo on 3rd Fret


X - strum while muting it (i'm not sure whether 'x' is really used for showing mute.)
ho - hammer on
po - pull off

Verses and the "Time I cannot change...." part
|--------------3--x-x-x-------------------------------------3---------3------------------|
|--------------3--x-x-x---------------3--x-x-x--------------3---------3------------------|
|-----------0--0--x-x-x----0-ho-2--2--2--x-x-x----------0---0---------0------------------|
|---0-ho-2--2--------------0----------0--x-x-x----------0--------------------------0-ho-2|
|---0-ho-2--2-----------------------------------0-ho-2--2-----0-ho-2-------0-ho-2--------|
|-----------------------------------------------0-h0-3--------0-ho-3---------------------|


|--------------3--x-x-x-------------------------------------3---------3------------------|
|--------------3--x-x-x---------------3--x-x-x--------------3---------3------------------|
|-----------0--0--x-x-x----0-ho-2--2--2--x-x-x----------0---0---------0------------------|
|---0-ho-2--2--------------0----------0--x-x-x----------0--------------------------0-ho-2|
|---0-ho-2--2-----------------------------------0-ho-2--2-----0-ho-2-------0-ho-2--------|
|-----------------------------------------------0-h0-3--------0-ho-3---------------------|


|--------------3--x-x-x----------------------------------------3---|
|--------------3--x-x-x---------------3--x-x-x---------3-------3---|
|-----------0--0--x-x-x----0-ho-2--2--2--x-x-x-------0---------0---|
|---0-ho-2--2--------------0----------0--x-x-x-----2------0-ho-2---|
|---0-ho-2--2------------------------------------3--------0-ho-3---|
|------------------------------------------------------------------|


|--0--------------------------------------------0------3---|
|--1-(pick around this chord,Am)----------------1------3---|
|--2--------------------------------------------0------0---|
|--2----------------------------------------2---2------2---|
|--0--------------------------------0-ho-2------3------3---|
---0-------------------------------------------------------|



CHORUS and 'I feel fine...' part :

    C/G/D/Em   C/G/D    C/G/D/Em   C/G/D



BRIDGE:

    Am/C/G/D  Am/C/G/D


Here are a bit of the last part:

   "..demon of my back.."         "want to shine"         "I want to radiate"
|---2-ho-3-----------------|   |----------------------------------------0----|
|------------3-----------3-|   |-----------------0----------------------1----|
|-------------------0------|   |--------------4---------------0----0----0----|
|-----------------2--------|   |-------2-h0-4-----------------0-ho-2----2----|
|---------------3----------|   |-----2-------------------3----3----3---------|
|--------------------------|   |---0-----------------------------------------|

just after "...radiate"
|--2-ho-3-po-2-po-0------0-ho-2---|
|---------------------------------|
|---------------------------------|    after that,stum or pick around  C/G/D/Em   C/G/D
|---------------------------------|
|---------------------------------|
|---------------------------------|



The last chorus:

  C/G/D/Em   C/G/D  C/G/D/Em  C/G/D

______________________________________________________________________________________
                                     THE END
            
Submit corrections

↑ Back to top | Tablatures and chords for acoustic guitar and electric guitar, ukulele, drums are parodies/interpretations of the original songs. You may use it for private study, scholarship, research or language learning purposes only