Home » M » Muffs »

Muffs - Kids In America Tabs

Artists:  A B C D E F G H I J K L M N O P Q R S T U V W X Y Z # 

Kids In America Tabs

(ver. 1) Click to play this song!
Muffs
[Intro]
 
 PM......................................
e|-------------------|-------------------|
B|-------------------|-------------------|
G|-------------------|-------------------|
D|--8-8-8-8-8-8-8-8--|--8-8-8-8-8-8-8-8--|
A|--8-8-8-8-8-8-8-8--|--8-8-8-8-8-8-8-8--|
E|--6-6-6-6-6-6-6-6--|--6-6-6-6-6-6-6-6--|
 
[Verse 1]
 
 PM..............................................................
e|-------------------|   |-------------------|-------------------|
B|-------------------|   |-------------------|-------------------|
G|-------------------|   |-------------------|-------------------|
D|--8-8-8-8-8-8-8-8--|x4 |--6-6-6-6-6-6-6-6--|--6-6-6-6-6-6-6-6--|
A|--8-8-8-8-8-8-8-8--|   |--6-6-6-6-6-6-6-6--|--6-6-6-6-6-6-6-6--|
E|--6-6-6-6-6-6-6-6--|   |--4-4-4-4-4-4-4-4--|--4-4-4-4-4-4-4-4--|
   Looking out....
 
 PM....................................................................
e|-------------------|-------------------|-------------------|-------------------|
B|-------------------|-------------------|-------------------|-------------------|
G|-------------------|-------------------|--8-8-8-8-8-8-8-8--|--8-8-8-8-8--------|
D|--4-4-4-4-4-4-4-4--|--6-6-6-6-6-6-6-6--|--8-8-8-8-8-8-8-8--|--8-8-8-8-8--------|
A|--4-4-4-4-4-4-4-4--|--6-6-6-6-6-6-6-6--|--6-6-6-6-6-6-6-6--|--6-6-6-6-6--------|
E|--2-2-2-2-2-2-2-2--|--4-4-4-4-4-4-4-4--|-------------------|-------------------|
 i sit here....      ..alone and I        ..wonder why
 
 PM...................
e|-------------------|
B|-------------------|
G|-------------------|
D|--8-8-8-8-8-8-8-8--|x4
A|--8-8-8-8-8-8-8-8--|
E|--6-6-6-6-6-6-6-6--|
   Friday night....
 
 PM..............................................................................
e|-------------------|-------------------|-------------------|-------------------|
B|-------------------|-------------------|-------------------|-------------------|
G|-------------------|-------------------|-------------------|-------------------|
D|--6-6-6-6-6-6-6-6--|--6-6-6-6-6-6-6-6--|--4-4-4-4-4-4-4-4--|--6-6-6-6-6-6-6-6--|
A|--6-6-6-6-6-6-6-6--|--6-6-6-6-6-6-6-6--|--4-4-4-4-4-4-4-4--|--6-6-6-6-6-6-6-6--|
E|--4-4-4-4-4-4-4-4--|--4-4-4-4-4-4-4-4--|--2-2-2-2-2-2-2-2--|--4-4-4-4-4-4-4-4--|
 
[Bridge]
 
e|-------------------|-------------------|-------------------------|-------------------------|
B|-------------------|-------------------|-------------------------|-------------------------|
G|--8-8---8-8-8---8--|--8-8---8-8-8---8--|--10-10---10-10-10---10--|--10-10---10-10-10---10--|
D|--8-8---8-8-8---8--|--8-8---8-8-8---8--|--10-10---10-10-10---10--|--10-10---10-10-10---10--|
A|--6-6---6-6-6---6--|--6-6---6-6-6---6--|--8--8----8--8--8----8---|--8--8----8--8--8----8---|
E|-------------------|-------------------|-------------------------|-------------------------|
 Downtown....
 
 [Chorus]
e|---------------------|---------------------|---------------------|---------------------|
B|---------------------|---------------------|---------------------|---------------------|
G|--11--11---11-11-11--|---------------------|--11--11---11-11-11--|---------------------|
D|--11--11---11-11-11--|--11--11---11-11-11--|--11--11---11-11-11--|--11--11---11-11-11--|
A|--9---9----9--9--9---|--11--11---11-11-11--|--9---9----9--9--9---|--11--11---11-11-11--|
E|---------------------|--9---9----9--9--9---|---------------------|--9---9----9--9--9---|
We're the kids in america....
 
e|---------------------|---------------------|
B|---------------------|---------------------|
G|--11--11---11-11-11--|-13--13----13-13-13--|
D|--11--11---11-11-11--|-13--13----13-13-13--|
A|--9---9----9--9--9---|-11--11----11-11-11--|
E|---------------------|---------------------|
 
[Interlude]
 
 PM......................................
e|-------------------|-------------------|
B|-------------------|-------------------|
G|-------------------|-------------------|
D|--8-8-8-8-8-8-8-8--|--8-8-8-8-8-8-8-8--|
A|--8-8-8-8-8-8-8-8--|--8-8-8-8-8-8-8-8--|
E|--6-6-6-6-6-6-6-6--|--6-6-6-6-6-6-6-6--|
 
[Verse 2]
 
 PM..............................................................
e|-------------------|   |-------------------|-------------------|
B|-------------------|   |-------------------|-------------------|
G|-------------------|   |-------------------|-------------------|
D|--8-8-8-8-8-8-8-8--|x4 |--6-6-6-6-6-6-6-6--|--6-6-6-6-6-6-6-6--|
A|--8-8-8-8-8-8-8-8--|   |--6-6-6-6-6-6-6-6--|--6-6-6-6-6-6-6-6--|
E|--6-6-6-6-6-6-6-6--|   |--4-4-4-4-4-4-4-4--|--4-4-4-4-4-4-4-4--|
   Looking out....
 
 PM....................................................................
e|-------------------|-------------------|-------------------|-------------------|
B|-------------------|-------------------|-------------------|-------------------|
G|-------------------|-------------------|--8-8-8-8-8-8-8-8--|--8-8-8-8-8--------|
D|--4-4-4-4-4-4-4-4--|--6-6-6-6-6-6-6-6--|--8-8-8-8-8-8-8-8--|--8-8-8-8-8--------|
A|--4-4-4-4-4-4-4-4--|--6-6-6-6-6-6-6-6--|--6-6-6-6-6-6-6-6--|--6-6-6-6-6--------|
E|--2-2-2-2-2-2-2-2--|--4-4-4-4-4-4-4-4--|-------------------|-------------------|
 i sit here....      ..alone and I        ..wonder why
 
 PM...................
e|-------------------|
B|-------------------|
G|-------------------|
D|--8-8-8-8-8-8-8-8--|x4
A|--8-8-8-8-8-8-8-8--|
E|--6-6-6-6-6-6-6-6--|
   Friday night....
 
 PM..............................................................................
e|-------------------|-------------------|-------------------|-------------------|
B|-------------------|-------------------|-------------------|-------------------|
G|-------------------|-------------------|-------------------|-------------------|
D|--6-6-6-6-6-6-6-6--|--6-6-6-6-6-6-6-6--|--4-4-4-4-4-4-4-4--|--6-6-6-6-6-6-6-6--|
A|--6-6-6-6-6-6-6-6--|--6-6-6-6-6-6-6-6--|--4-4-4-4-4-4-4-4--|--6-6-6-6-6-6-6-6--|
E|--4-4-4-4-4-4-4-4--|--4-4-4-4-4-4-4-4--|--2-2-2-2-2-2-2-2--|--4-4-4-4-4-4-4-4--|
 
[Bridge]
 
e|-------------------|-------------------|-------------------------|-------------------------|
B|-------------------|-------------------|-------------------------|-------------------------|
G|--8-8---8-8-8---8--|--8-8---8-8-8---8--|--10-10---10-10-10---10--|--10-10---10-10-10---10--|
D|--8-8---8-8-8---8--|--8-8---8-8-8---8--|--10-10---10-10-10---10--|--10-10---10-10-10---10--|
A|--6-6---6-6-6---6--|--6-6---6-6-6---6--|--8--8----8--8--8----8---|--8--8----8--8--8----8---|
E|-------------------|-------------------|-------------------------|-------------------------|
 Downtown....
 
 [Chorus]
e|---------------------|---------------------|---------------------|---------------------|
B|---------------------|---------------------|---------------------|---------------------|
G|--11--11---11-11-11--|---------------------|--11--11---11-11-11--|---------------------|
D|--11--11---11-11-11--|--11--11---11-11-11--|--11--11---11-11-11--|--11--11---11-11-11--|
A|--9---9----9--9--9---|--11--11---11-11-11--|--9---9----9--9--9---|--11--11---11-11-11--|
E|---------------------|--9---9----9--9--9---|---------------------|--9---9----9--9--9---|
We're the kids in america....
 
e|---------------------|---------------------|
B|---------------------|---------------------|
G|--11--11---11-11-11--|-13--13----13-13-13--|
D|--11--11---11-11-11--|-13--13----13-13-13--|
A|--9---9----9--9--9---|-11--11----11-11-11--|
E|---------------------|---------------------|
 
 [Solo]
 Gtr 1
e|-------------------|-------------------|-------------------|-------------------|
B|-------------------|-------------------|-------------------|-------------------|
G|-------------------|--6-6-6-6-6-6-6-6--|-------------------|-------------------|x2
D|--8-8-8-8-8-8-8-8--|--6-6-6-6-6-6-6-6--|--6-6-6-6-6-6-6-6--|--4-4-4-4-4-4-4-4--|
A|--8-8-8-8-8-8-8-8--|--4-4-4-4-4-4-4-4--|--6-6-6-6-6-6-6-6--|--4-4-4-4-4-4-4-4--|
E|--6-6-6-6-6-6-6-6--|-------------------|--4-4-4-4-4-4-4-4--|--2-2-2-2-2-2-2-2--|
|
                                                                             |
 |Gtr 2                                                                          |
e|-------------------|-------------------|-------------------|-------------------|
B|------------4-6----|------4------------|------------4-6----|------4------------|
G|--3-3-5---6--------|--5-5-------6-5-3--|--3-3-5---6--------|--5-5-------6-5-3--|x2
D|-------------------|-------------------|-------------------|-------------------|
A|-------------------|-------------------|-------------------|-------------------|
E|-------------------|-------------------|-------------------|-------------------|
 
 Gtr 1
e|-------------------|-------------------|
B|-------------------|-------------------|
G|-------------------|-------------------|
D|--4-4-4-4-4-4-4-4--|--4-4-4-4-6-6-6-6--|
A|--4-4-4-4-4-4-4-4--|--4-4-4-4-6-6-6-6--|
E|--2-2-2-2-2-2-2-2--|--2-2-2-2-4-4-4-4--|
|
e|-------------------|-------------------|
B|-------------------|-------------------|
G|--6-5-3------------|----------1-------3|
D|-------------------|-------------------|
A|-------------------|-------------------|
E|-------------------|-------------------|
 
 
[Verse 2]
 
 PM..............................................................
e|-------------------|   |-------------------|-------------------|
B|-------------------|   |-------------------|-------------------|
G|-------------------|   |-------------------|-------------------|
D|--8-8-8-8-8-8-8-8--|x4 |--6-6-6-6-6-6-6-6--|--6-6-6-6-6-6-6-6--|
A|--8-8-8-8-8-8-8-8--|   |--6-6-6-6-6-6-6-6--|--6-6-6-6-6-6-6-6--|
E|--6-6-6-6-6-6-6-6--|   |--4-4-4-4-4-4-4-4--|--4-4-4-4-4-4-4-4--|
   Looking out....
 
 PM....................................................................
e|-------------------|-------------------|-------------------|-------------------|
B|-------------------|-------------------|-------------------|-------------------|
G|-------------------|-------------------|--8-8-8-8-8-8-8-8--|--8-8-8-8-8--------|
D|--4-4-4-4-4-4-4-4--|--6-6-6-6-6-6-6-6--|--8-8-8-8-8-8-8-8--|--8-8-8-8-8--------|
A|--4-4-4-4-4-4-4-4--|--6-6-6-6-6-6-6-6--|--6-6-6-6-6-6-6-6--|--6-6-6-6-6--------|
E|--2-2-2-2-2-2-2-2--|--4-4-4-4-4-4-4-4--|-------------------|-------------------|
 i sit here....      ..alone and I        ..wonder why
 
 PM...................
e|-------------------|
B|-------------------|
G|-------------------|
D|--8-8-8-8-8-8-8-8--|x4
A|--8-8-8-8-8-8-8-8--|
E|--6-6-6-6-6-6-6-6--|
   Friday night....
 
 PM..............................................................................
e|-------------------|-------------------|-------------------|-------------------|
B|-------------------|-------------------|-------------------|-------------------|
G|-------------------|-------------------|-------------------|-------------------|
D|--6-6-6-6-6-6-6-6--|--6-6-6-6-6-6-6-6--|--4-4-4-4-4-4-4-4--|--6-6-6-6-6-6-6-6--|
A|--6-6-6-6-6-6-6-6--|--6-6-6-6-6-6-6-6--|--4-4-4-4-4-4-4-4--|--6-6-6-6-6-6-6-6--|
E|--4-4-4-4-4-4-4-4--|--4-4-4-4-4-4-4-4--|--2-2-2-2-2-2-2-2--|--4-4-4-4-4-4-4-4--|
 
[Bridge]
 
e|-------------------|-------------------|-------------------------|-------------------------|
B|-------------------|-------------------|-------------------------|-------------------------|
G|--8-8---8-8-8---8--|--8-8---8-8-8---8--|--10-10---10-10-10---10--|--10-10---10-10-10---10--|
D|--8-8---8-8-8---8--|--8-8---8-8-8---8--|--10-10---10-10-10---10--|--10-10---10-10-10---10--|
A|--6-6---6-6-6---6--|--6-6---6-6-6---6--|--8--8----8--8--8----8---|--8--8----8--8--8----8---|
E|-------------------|-------------------|-------------------------|-------------------------|
 Downtown....
 
 [Chorus]
e|---------------------|---------------------|---------------------|---------------------|
B|---------------------|---------------------|---------------------|---------------------|
G|--11--11---11-11-11--|---------------------|--11--11---11-11-11--|---------------------|
D|--11--11---11-11-11--|--11--11---11-11-11--|--11--11---11-11-11--|--11--11---11-11-11--|
A|--9---9----9--9--9---|--11--11---11-11-11--|--9---9----9--9--9---|--11--11---11-11-11--|
E|---------------------|--9---9----9--9--9---|---------------------|--9---9----9--9--9---|
We're the kids in america....
 
e|---------------------|---------------------|
B|---------------------|---------------------|
G|--11--11---11-11-11--|-13--13----13-13-13--|
D|--11--11---11-11-11--|-13--13----13-13-13--|
A|--9---9----9--9--9---|-11--11----11-11-11--|
E|---------------------|---------------------|
 
e|-------------------|-------------------|
B|-------------------|-------------------|
G|-------------------|--6-6-6-6-6-6-6-6--|
D|--8-8-8-8-8-8-8-8--|--6-6-6-6-6-6-6-6--|
A|--8-8-8-8-8-8-8-8--|--4-4-4-4-4-4-4-4--|
E|--6-6-6-6-6-6-6-6--|-------------------|
 
 [Chorus]
e|---------------------|---------------------|---------------------|---------------------|
B|---------------------|---------------------|---------------------|---------------------|
G|--11--11---11-11-11--|---------------------|--11--11---11-11-11--|---------------------|
D|--11--11---11-11-11--|--11--11---11-11-11--|--11--11---11-11-11--|--11--11---11-11-11--|
A|--9---9----9--9--9---|--11--11---11-11-11--|--9---9----9--9--9---|--11--11---11-11-11--|
E|---------------------|--9---9----9--9--9---|---------------------|--9---9----9--9--9---|
We're the kids in america....
 
e|---------------------|---------------------|
B|---------------------|---------------------|
G|--11--11---11-11-11--|-13--13----13-13-13--|
D|--11--11---11-11-11--|-13--13----13-13-13--|
A|--9---9----9--9--9---|-11--11----11-11-11--|
E|---------------------|---------------------|
 
[Solo] Fading out
 Gtr 1
e|-------------------|-------------------|-------------------|-------------------|
B|-------------------|-------------------|-------------------|-------------------|
G|-------------------|--6-6-6-6-6-6-6-6--|-------------------|-------------------|x2
D|--8-8-8-8-8-8-8-8--|--6-6-6-6-6-6-6-6--|--6-6-6-6-6-6-6-6--|--4-4-4-4-4-4-4-4--|
A|--8-8-8-8-8-8-8-8--|--4-4-4-4-4-4-4-4--|--6-6-6-6-6-6-6-6--|--4-4-4-4-4-4-4-4--|
E|--6-6-6-6-6-6-6-6--|-------------------|--4-4-4-4-4-4-4-4--|--2-2-2-2-2-2-2-2--|
|
                                                                             |
 |Gtr 2                                                                          |
e|-------------------|-------------------|-------------------|-------------------|
B|------------4-6----|------4------------|------------4-6----|------4------------|
G|--3-3-5---6--------|--5-5-------6-5-3--|--3-3-5---6--------|--5-5-------6-5-3--|x2
D|-------------------|-------------------|-------------------|-------------------|
A|-------------------|-------------------|-------------------|-------------------|
E|-------------------|-------------------|-------------------|-------------------|
 
 Gtr 1
e|-------------------|-------------------|
B|-------------------|-------------------|
G|-------------------|-------------------|
D|--4-4-4-4-4-4-4-4--|--4-4-4-4-6-6-6-6--|
A|--4-4-4-4-4-4-4-4--|--4-4-4-4-6-6-6-6--|
E|--2-2-2-2-2-2-2-2--|--2-2-2-2-4-4-4-4--|
|
e|-------------------|-------------------|
B|-------------------|-------------------|
G|--6-5-3------------|----------1-------3|
D|-------------------|-------------------|
A|-------------------|-------------------|
E|-------------------|-------------------|
            
Submit corrections

↑ Back to top | Tablatures and chords for acoustic guitar and electric guitar, ukulele, drums are parodies/interpretations of the original songs. You may use it for private study, scholarship, research or language learning purposes only