» » »

Muff Potter - Antifamilia Chords

Artists:  A B C D E F G H I J K L M N O P Q R S T U V W X Y Z # 

Antifamilia Chords

(ver. 1) Click to play this song!
Muff Potter
 Rating:
4.3/5 (26 votes)

 Antifamilia lessons Tabs too difficult? Try these video lessons and learn fast
 
                [Intro]
e|-------------------------------------------------------------------|
B|-------------------------------------------------------------------|
G|-------------------------------------------------------------------|
D|-------------------------------------------------------------------|
A|-------------------------------------------------------------------|
E|--0---0-0-8-8-8-7-0---0-0-8-8-8-7-0---0-0-8-8-8-7-0---0-0-8-8-8-7--|

[Verse 1]
N.C. w/Intro
Gedanken aus Draht stricken einen Zaun
N.C. w/Intro
Gelächter wie Säure durchflutet den Raum
N.C. w/Intro
Worte aus Pappe, eine Krone aus Dornen
N.C. w/Intro
Dein gesunder Menschenverstand verblutet irgendwo da vorn

[Bridge]
E5    C5  B5
E5    C5  B5
E5    C5  B5
D5    C5

[Verse 2]
N.C. w/Intro
Wie sie gierig Seifenblasen trinken
N.C. w/Intro
Weil ihre Münder nach Kreide schmecken und nach Lügen stinken
N.C. w/Intro
Zwischen Alkohol und Zigaretten
N.C. w/Intro
Gibt es hier nichts zu entdecken
N.C. w/Intro
Zwischen hier und da und dort
N.C. w/Intro
Wünscht du dich an einen anderen Ort
N.C. w/Intro
Zu Trommelwirbel, Wind und Wetter
N.C. w/Intro
Abenteuer - Fegefeuer

[Bridge]
E5    C5  B5
E5    C5  B5
E5    C5  B5
D5    C5

[Chrous]
A5                       D5
   Das ist dein zuhause, deine familie, du wurdest hier geboren
A5                                      D5
   Und du fragst dich: was außer meiner kindheit hab ich zum teufel hier verloren?
B5
   Zum teufel hier verloren?

[Intro] 2x
e|-------------------------------------------------------------------|
B|-------------------------------------------------------------------|
G|-------------------------------------------------------------------|
D|-------------------------------------------------------------------|
A|-------------------------------------------------------------------|
E|--0---0-0-8-8-8-7-0---0-0-8-8-8-7-0---0-0-8-8-8-7-0---0-0-8-8-8-7--|

[Solo] w/ E5   C5 B5  8x
e|-------------------------------------------------------------------------------xxxx--|
B|--15b16-------15b16b15-------------------------------------------------15--17--xxxx--|
G|--14b15-------14b15b14--12-11-------12-/14-12------4--7--9--9--12--14----------xxxx--|
D|------------------------------12-14-----------12-------------------------------xxxx--|
A|-------------------------------------------------------------------------------xxxx--|
E|-------------------------------------------------------------------------------------|

[Bridge 2]
E5 C5 E5 C5
An_ti_fa_milia
   E5 C5 D5 C5
An_ti_fa_milia
E5 C5 E5 C5
An_ti_fa_milia
   E5 C5 D5 C5
An_ti_fa_milia

[Chorus]
A5                                   D5
   Das ist nicht dein Zuhause, nicht deine Familie, du wurdest nur hier geboren
A5                                      D5
   Und du fragst dich: was außer meiner Kindheit hab ich zum Teufel hier verloren?
A5                                   D5
   Das ist nicht dein Zuhause, nicht deine Familie, du wurdest nur hier geboren
   (Und du willst nicht mal die Ruhe stören)
A5                                      D5
   Und du fragst dich: was außer meiner Kindheit hab ich zum Teufel hier verloren?
   (Du willst einfach nur dazu gehören)

[End]
B5

            
Submit corrections


        Antifamilia lessons Hard to play? Try these video lessons and learn fast Antifamilia lessons
        
↑ Back to top | Tablatures and chords for acoustic guitar and electric guitar, ukulele, drums are parodies/interpretations of the original songs. You may use it for private study, scholarship, research or language learning purposes only