Home » M » Mud »

Mud - Tiger Feet Tabs

Artists:  A B C D E F G H I J K L M N O P Q R S T U V W X Y Z # 

Tiger Feet Tabs

(ver. 1) Click to play this song!
Mud
 Rating:
4.4/5 (7 votes)
                Yea-a-a-ah, Yeah

RIFF 1
|------------------|-------------------|------------------|-------------------|
|------------------|-------------------|------------------|-------------------|
|------------------|-------------------|------------------|-------------------|
|------------------|-------------------|------------------|-------------------|
|-----7------7-----|-7------7----7-----|-----7------7-----|-7------7----7-----|
|-0-------0----0---|-----0----0----0---|-0-------0----0---|-----0----0----0---|

                                                                           B    
|------------------|-------------------|------------------|---------------------|
|------------------|-------------------|------------------|---------------------|
|------------------|-------------------|------------------|------------------8--|
|------------------|-------------------|------------------|------------------9--|
|-----7------7-----|-7------7----7-----|-----7------7-----|-7------7----7----9--|
|-0-------0----0---|-----0----0----0---|-0-------0----0---|-----0----0----0--7--|


  B
|-----------------------|--------------------------|--------------------------|
|-----------------------|--------------------------|--------------------------|
|-8----8----8---8--8--8-|-(8)--8--8----8---8--8--8-|-(8)--8--8----8---8--8--8-|
|-9----x----x---x--x--9-|-(9)--9--x----x---x--x--9-|-(9)--9--x----x---x--x--9-|
|-9---11---12--11-11--9-|-(9)--9-11---12--11-11--9-|-(9)--9-11---12--11-11--9-|
|-7----7----7---7--7--7-|-(7)--7--7----7---7--7--7-|-(7)--7--7----7---7--7--7-|


        F#                  B
|-------------------------|------------------------|------------------------|
|-------------------------|------------------------|------------------------|
|-(8)\--3-3--3-3--3-3--3/-|-8--8--8----8---8--8--8-|-8--8--8----8---8--8--8-|
|-(9)\--4-4--4-4--4-4--4/-|-9--9--x----x---x--x--9-|-9--9--x----x---x--x--9-|
|-(9)\--4-4--4-4--4-4--4/-|-9--9-11---12--11-11--9-|-9--9-11---12--11-11--9-|
|-(7)\--2-2--2-2--2-2--2/-|-7--7--7----7---7--7--7-|-7--7--7----7---7--7--7-|

  B                            F#                                                E F  F#
|------------------------|-----------------------|------------------------|-----------------------|
|------------------------|-----------------------|------------------------|-----------------------|
|-8--8--8----8---8--8--8-|-8\--3-3--3-3--3-3--3/-|-8--8--8----8---8--8--8-|-----------------------|
|-9--9--x----x---x--x--9-|-9\--4-4--4-4--4-4--4/-|-9--9--x----x---x--x--9-|-(9)--9-10--11-(11)----|
|-9--9-11---12--11-11--9-|-9\--4-4--4-4--4-4--4/-|-9--9-11---12--11-11--9-|------7--8---9--(9)----|
|-7--7--7----7---7--7--7-|-7\--2-2--2-2--2-2--2/-|-7--7--7----7---7--7--7-|-----------------------|


VERSE:
E                                      F#
All night long, you’ve been looking at me
E                                                          F#
Well you know you’re the dance hall cutie that you love to be
E                                  F#
Oh well now, you’ve been laying it down
E                                    F#
You’ve got your hips swinging out of bounds
E                                              F# (w/ Riff 2)
And I like the way you do what you’re doin’ to me   alright

Riff 2
    |----14--------12-----|-----11-------9---|
    |---------------------|------------------|
13s-|-15-----15S13-----13S|=11------11S9-----|
    |---------------------|------------------|
    |---------------------|------------------|
    |---------------------|------------------|


CHORUS:
B                                                                A              B  
That’s right, that’s right, that’s right, that’s right I really love your tiger light
B                                                             A              B
That’s neat, that’s neat, that’s neat, that’s neat, I really love your tiger feet
B         A              B
I really love your tiger feet
F#      A     B
   Your tiger feet
F#      A     B
   Your tiger feet
F#      A     B
   Your tiger feet
E   F   F#
Well alright


GUITAR HARMONY

|-(12)b14--12r-12--10-------------------|-------------------------|-------------------------|
|---------------------12b14--12r-12--12-|-10--10------------------|-------------------------|
|---------------------------------------|--------11--11-9--9-9--9-|-------------------------|
|---------------------------------------|-------------------------|-9b10--9r-9--9-7---------|
|---------------------------------------|-------------------------|------------------9-7--9-|
|---------------------------------------|-------------------------|-------------------------|
|
|---9b10----9r--9p==7-------------------|-------------------------|-------------------------|
|----------------------9b10---9r--9---9-|--7---7------------------|-------------------------|
|---------------------------------------|---------8---8-6--6-6--6-|-------------------------|
|---------------------------------------|-------------------------|-6b7---6r-6--6-4---------|
|---------------------------------------|-------------------------|------------------6-4--6-|
|---------------------------------------|-------------------------|-------------------------|


|---------------12b14-|-(12)b14--(12)r-12--10----------------------|
|---------------------|-----------------------12b14--12r-12--12----|
|---------------------|--------------------------------------------|
|---------------------|--------------------------------------------|
|-(9)-----------------|--------------------------------------------|
|---------------------|--------------------------------------------|
|
|----------------9b10-|---9b10-----9r---9p==7----------------------|
|---------------------|------------------------9b11---9r--9---9----|
|---------------------|--------------------------------------------|
|---------------------|--------------------------------------------|
|-(6)-----------------|--------------------------------------------|
|---------------------|--------------------------------------------|


|-------------------------|-------------------------|---------------------|
|-10--10------------------|-------------------------|---------------12b14-|
|--------11--11-9--9-9--9-|-------------------------|---------------------|
|-------------------------|-9b10--9r-9--9-7---------|---------------------|
|-------------------------|------------------9-7--9-|-(9)-----------------|
|-------------------------|-------------------------|---------------------|
|
|-------------------------|-------------------------|---------------------|
|--7---7------------------|-------------------------|----------------9b10-|
|---------8---8-6--6-6--6-|-------------------------|---------------------|
|-------------------------|-6b7---6r-6--6-4---------|---------------------|
|-------------------------|------------------6-4--6-|-(6)-----------------|
|-------------------------|-------------------------|---------------------|


|---------------------------------------|-------------------------||
|-(12)b14===12r=(12)p10----10-----------|---12-13--14-(14)-------o||
|-----------------------11-----11-9--11-|-------------------------||
|---------------------------------------|-------------------------||
|---------------------------------------|------------------------o||
|---------------------------------------|-------------------------||
|
|---------------------------------------|-------------------------||
|--(9)b10---(9)r==9p==7-----7-----------|----9-10--11-(11)-------o||
|------------------------8------8-6---8-|-------------------------||
|---------------------------------------|-------------------------||
|---------------------------------------|------------------------o||
|---------------------------------------|-------------------------||


VERSE:
Well flash your warning lights just as long as you like
I know you’re aching to be making me tonight
I’ve got a feeling in my knees
It’s a feeling only you can please
There ain’t no way I’m gonna let you outta my sight

CHORUS


GUITAR HARMONY



RIFF 3 (As Riff 1 but played w/ B octaves over chord progression A - B)

A      B
That’s right, (that’s right), that’s right, (that’s right)
         A               B
I really love your tiger light
       B
That’s neat, (that’s neat), that’s neat, (that’s neat)
         A               B
I really love your tiger feet
          A              B
I really love your tiger feet

B                      E                     F#
Well alright well now, you’ve been laying it down
E                                     F#
You’ve got your hips swinging out of bounds
E                                              F# (w/ riff 2)
And I like the way you do what you’re doin’ to me alright

B                                                                A              B  
That’s right, that’s right, that’s right, that’s right I really love your tiger light
B                                                             A              B
That’s neat, that’s neat, that’s neat, that’s neat, I really love your tiger feet
B         A              B
I really love your tiger feet
B         A              B      E   F   F#
I really love your tiger feet

OUTRO (12-Bar in B  x 2)
B
That’s right, that’s right, that’s right, that’s right
That’s right, that’s right, that’s right, that’s right
E
That’s neat, that’s neat, that’s neat, that’s neat
         B                                            F#
I really love, I really love, I really love, I really love
         E               B      E   F   F#
I really love your tiger feet.

That’s right, that’s right, that’s right, that’s right
That’s right, that’s right, that’s right, that’s right
That’s neat, that’s neat, that’s neat, that’s neat
I really love, I really love, I really love, I really love
I really love your tiger feet. 
            
Submit corrections

↑ Back to top | Tablatures and chords for acoustic guitar and electric guitar, ukulele, drums are parodies/interpretations of the original songs. You may use it for private study, scholarship, research or language learning purposes only