» » »

Moxy - Sail On Sail Away Tabs

Artists:  A B C D E F G H I J K L M N O P Q R S T U V W X Y Z # 

Sail On Sail Away Tabs

(ver. 1) Click to play this song!
Moxy
 Rating:
4/5 (4 votes)

 Sail On Sail Away lessons Tabs too difficult? Try these video lessons and learn fast
 
                ----------------------------------------------------------------------------
                         Sail On, Sail Away - Moxy
----------------------------------------------------------------------------

Tuning:Standard

Note: Where I Couldn't Quite Get The Strumming Pattern I'll Put An *
 Beneath The Chord, You Figure It From There

Note: I'll Admit, This Tab Is Dangerously Close, But Not Perfect. Please

Note: Times Are Approximate, Lyrics May Not Correspond With Notes
 
PRE-VERSE #1 (ACOUSTIC)

00:00                  00:03
e|---------2-----------2-3---0-----------------2-3-|
B|---------2-----------3-3---1-----------------3-3-|
G|---------0-----------2-2---0-----------------2-2-|
D|---------0-----0-0-0-0-0---2-----------0-0-0-0-0-|
A|-3-2-0---2-0h2-----------3-3-0h2-3-0h2-----------|
E|-------3-3---------------------------------------|
           *           * *   *                 * *
00:09
e|---------2-----------2-3---0-----------------2-3-|
B|---------2-----------3-3---1-----------------3-3-|
G|---------0-----------2-2---0-----------------2-2-|
D|---------0-----0-0-0-0-0---2-----------0-0-0-0-0-|
A|-3-2-0---2-0h2-----------3-3-0h2-3-0h2-----------|
E|-------3-3---------------------------------------|
           *           * *   *                 * *


VERSE #1 (ACOUSTIC)

  Rise Up In...
00:19
e|---------2-----------2-3---0-----------------2-3-|
B|---------2-----------3-3---1-----------------3-3-|
G|---------0-----------2-2---0-----------------2-2-|
D|---------0-----0-0-0-0-0---2-----------0-0-0-0-0-|
A|-3-2-0---2-0h2-----------3-3-0h2-3-0h2-----------|
E|-------3-3---------------------------------------|
           *           * *   *                 * *
  There's A South...
00:29
e|---------2-----------2-3---0-----------------2-3-|
B|---------2-----------3-3---1-----------------3-3-|
G|---------0-----------2-2---0-----------------2-2-|
D|---------0-----0-0-0-0-0---2-----------0-0-0-0-0-|
A|-3-2-0---2-0h2-----------3-3-0h2-3-0h2-----------|
E|-------3-3---------------------------------------|
           *           * *   *                 * *


BRIDGE #1

  Driftin' Along...
00:39                  00:42
e|-----------------------------------------|
B|-----------------------------------------|
G|-----------------------------------------|
D|-----4---3-----0---2-----4---3-----0---2-|
A|---5---5---5-3---3---2-5---5---5-3---3---|
E|-5---------------------------------------|

  Wonderin' Why...
00:45                  00:47
e|---------------------------------------------|
B|---------------------------------------------|
G|---------------------------------------------|
D|-----4---3-----0---2-------4---3-----0---2---|
A|---5---5---5-3---3---2---5---5---5-3---3---2-|
E|-5---------------------5---------------------|


CHORUS #1 (DISTORTED, NO LYRICS)

00:52
e|----------------------------------------|
B|-5-5-7------5-5-7------5-5-7--------5---|
G|-5-5-7-4-4--5-5-7-4-4--5-5-7-4-4--3-5-4-|
D|-5-5-7-5-5--5-5-7-5-5--5-5-7-5-5--5-5-5-|
A|-3-3-5-5-5--3-3-5-5-5--3-3-5-5-5--5-3-5-|
E|-------3-3--------3-3--------3-3--3---3-|

01:02
e|----------------------------------------------|
B|-5-5-7------5-5-7------5-5-7------------------|
G|-5-5-7-4-4--5-5-7-4-4--5-5-7-4-4--------------|
D|-5-5-7-5-5--5-5-7-5-5--5-5-7-5-5--------------|
A|-3-3-5-5-5--3-3-5-5-5--3-3-5-5-5------3-2-0---|
E|-------3-3--------3-3--------3-3--3-0-------3-|


PRE-VERSE #2 (ACOUSTIC)

01:12
e|---------2-----------2-3---0-----------------2-3-|
B|---------2-----------3-3---1-----------------3-3-|
G|---------0-----------2-2---0-----------------2-2-|
D|---------0-----0-0-0-0-0---2-----------0-0-0-0-0-|
A|-3-2-0---2-0h2-----------3-3-0h2-3-0h2-----------|
E|-------3-3---------------------------------------|
           *           * *   *                 * *

01:22
e|---------2-----------2-3---0-----------------2-3-|
B|---------2-----------3-3---1-----------------3-3-|
G|---------0-----------2-2---0-----------------2-2-|
D|---------0-----0-0-0-0-0---2-----------0-0-0-0-0-|
A|-3-2-0---2-0h2-----------3-3-0h2-3-0h2-----------|
E|-------3-3---------------------------------------|
           *           * *   *                 * *


VERSE #2 (ACOUSTIC)

  There's Some One...
01:32
e|---------2-----------2-3---0-----------------2-3-|
B|---------2-----------3-3---1-----------------3-3-|
G|---------0-----------2-2---0-----------------2-2-|
D|---------0-----0-0-0-0-0---2-----------0-0-0-0-0-|
A|-3-2-0---2-0h2-----------3-3-0h2-3-0h2-----------|
E|-------3-3---------------------------------------|
           *           * *   *                 * *
  Hair Of Gold...
01:42
e|---------2-----------2-3---0-----------------2-3-----------|
B|---------2-----------3-3---1-----------------3-3-----------|
G|---------0-----------2-2---0-----------------2-2-----------|
D|---------0-----0-0-0-0-0---2-----------0-0-0-0-0-----0-0-0-|
A|-3-2-0---2-0h2-----------3-3-0h2-3-0h2-----------0h2-------|
E|-------3-3-------------------------------------------------|
           *           * *   *                 * *


CHORUS #2A (DISTORTED)

  Yes, I Love You...
01:56
e|----------------------------------------|
B|-5-5-7------5-5-7------5-5-7--------5---|
G|-5-5-7-4-4--5-5-7-4-4--5-5-7-4-4--3-5-4-|
D|-5-5-7-5-5--5-5-7-5-5--5-5-7-5-5--5-5-5-|
A|-3-3-5-5-5--3-3-5-5-5--3-3-5-5-5--5-3-5-|
E|-------3-3--------3-3--------3-3--3---3-|

  Yes, I Love You...
02:06
e|----------------------------------------------|
B|-5-5-7------5-5-7------5-5-7------------------|
G|-5-5-7-4-4--5-5-7-4-4--5-5-7-4-4--------------|
D|-5-5-7-5-5--5-5-7-5-5--5-5-7-5-5--------------|
A|-3-3-5-5-5--3-3-5-5-5--3-3-5-5-5------3-2-0---|
E|-------3-3--------3-3--------3-3--3-0-------3-|


CHORUS #2B (DISTORTED)

  Sail On, Sail Away... 
02:16
e|-----------------------------------------------------------------|
B|-----5-5-----------------------------5-5-------------------------|
G|-2-2-5-5-------------------------2-2-5-5-------------------------|
D|-3-3-5-5---------0-----------0---3-3-5-5---------0-----------0---|
A|-3-3-3-3-0-----------0-----------3-3-3-3-0-----------0-----------|
E|-1-1-------3-3-3---3---3-3-3---3-1-1-------3-3-3---3---3-3-3---3-|

  Sail On, Sail Away...
02:26
e|-----------------------------------------|
B|-----5-5-----------------------------5-5-|
G|-2-2-5-5-------------------------2-2-5-5-|
D|-3-3-5-5---------0-----------0---3-3-5-5-|
A|-3-3-3-3-0-----------0-----------3-3-3-3-|
E|-1-1-------3-3-3---3---3-3-3---3-1-1-----|


Bridge #2 (DISTORTED)

02:34-02:52
e|-255-255-25---------|
B|-355-355-35-5-5-5-5-|
G|-222-222-22-5-5-5-5-|
D|------------5-5-5-5-|
A|------------3-3-3-3-|
E|--------------------|

02:53
e|-----|
B|-5-7-|
G|-5-7-|
D|-5-7-|
A|-3-5-|
E|-----|


MAIN SOLO RHYTHM (DISTORTED)

02:54-03:13
e|-----------5-2-5-----------5-2-|
B|-----------5-3-5-----------5-3-|
G|-----------2-2-2-----------2-2-|
D|-------------------------------|
A|-----0-3-0-----------0-3-0-----|
E|-5p3-------------5p3-----------|


MAIN SOLO (DISTORTED)

02:54
e|--------------------------------------------------------------|
B|--------------------------------------------------------------|
G|-------------------------------------9~--------------------9~-|
D|-10p9-10-10-10p9-10-10-10p9-10-10-10----10p9-10-10-10p9-10----|
A|--------------------------------------------------------------|
E|--------------------------------------------------------------|

02:59
e|--------------------------------------------------------|
B|--------------------------------------------------------|
G|-------12-14-16-17-17-16p14h16-17-17b19~19r17~14h16p14~-|
D|-12-14--------------------------------------------------|
A|--------------------------------------------------------|
E|--------------------------------------------------------|

03:04
e|------------------------------------------------------------------|
B|------------------------------------------------------------------|
G|-17p16-17-17-17p16-17-17-17p16-17-19-21~-19p16-17-17-17p16-17-----|
D|--------------------------------------------------------------17~-|
A|------------------------------------------------------------------|
E|------------------------------------------------------------------|

03:08
e|-------15-17b19-17b19~-17-15-17-19-17b19-17b19~-|
B|-15-17------------------------------------------|
G|------------------------------------------------|
D|------------------------------------------------|
A|------------------------------------------------|
E|------------------------------------------------|

03:11
e|-17-15-14-15--------------------------|
B|-------------17-17-15-17-15-15-15/17~-|
G|--------------------------------------|
D|--------------------------------------|
A|--------------------------------------|
E|--------------------------------------|


VERSE #3 (DISTORTED)

03:14
e|-2-2-XX-2-2-2-XX-0-2-2-XX-2-2-2-XX-2-0-0-XX-0-2-2-XX-2-0-0-XX-0-0-0--0-|
B|-2-2-XX-2-2-2-XX-1-3-3-XX-3-3-3-XX-3-1-1-XX-1-2-2-XX-2-1-1-XX-1-1-1--1-|
G|-0-0-XX-0-0-0-XX-0-2-2-XX-2-2-2-XX-2-0-0-XX-0-0-0-XX-0-0-0-XX-0-0-0--0-|
D|-0-0-XX-0-0-0-XX-2-0-0-XX-0-0-0-XX-0-2-2-XX-2-0-0-XX-0-2-2-XX-2-2-2--2-|
A|-2-2-XX-2-2-2-XX-3-----XX-------XX---3-3-XX-3-2-2-XX-2-3-3-XX-3-3-3--3-|
E|-3-3-XX-3-3-3-XX-------XX-------XX-------XX---3-3-XX-3-----XX----------|

  There's A Road...
03:24
e|-2-2-XX-2-2-2-XX-0-2-2-XX-2-2-2-XX-2-0-0-XX-0-2-2-XX-2-0-0-XX-0-0-0--0-|
B|-2-2-XX-2-2-2-XX-1-3-3-XX-3-3-3-XX-3-1-1-XX-1-2-2-XX-2-1-1-XX-1-1-1--1-|
G|-0-0-XX-0-0-0-XX-0-2-2-XX-2-2-2-XX-2-0-0-XX-0-0-0-XX-0-0-0-XX-0-0-0--0-|
D|-0-0-XX-0-0-0-XX-2-0-0-XX-0-0-0-XX-0-2-2-XX-2-0-0-XX-0-2-2-XX-2-2-2--2-|
A|-2-2-XX-2-2-2-XX-3-----XX-------XX---3-3-XX-3-2-2-XX-2-3-3-XX-3-3-3--3-|
E|-3-3-XX-3-3-3-XX-------XX-------XX-------XX---3-3-XX-3-----XX----------|

  So Take My Hand...
03:34
e|-2-2-XX-2-2-2-XX-0-2-2-XX-2-2-2-XX-2-0-0-XX-0-2-2-XX-2-0-0-XX-0-0-0--0-|
B|-2-2-XX-2-2-2-XX-1-3-3-XX-3-3-3-XX-3-1-1-XX-1-2-2-XX-2-1-1-XX-1-1-1--1-|
G|-0-0-XX-0-0-0-XX-0-2-2-XX-2-2-2-XX-2-0-0-XX-0-0-0-XX-0-0-0-XX-0-0-0--0-|
D|-0-0-XX-0-0-0-XX-2-0-0-XX-0-0-0-XX-0-2-2-XX-2-0-0-XX-0-2-2-XX-2-2-2--2-|
A|-2-2-XX-2-2-2-XX-3-----XX-------XX---3-3-XX-3-2-2-XX-2-3-3-XX-3-3-3--3-|
E|-3-3-XX-3-3-3-XX-------XX-------XX-------XX---3-3-XX-3-----XX----------|


CHORUS #3

  Sail On, Sail Away..
03:44
e|-----------------------------------------------------------------|
B|-----5-5-----------------------------5-5-------------------------|
G|-2-2-5-5-------------------------2-2-5-5-------------------------|
D|-3-3-5-5---------0-----------0---3-3-5-5---------0-----------0---|
A|-3-3-3-3-0-----------0-----------3-3-3-3-0-----------0-----------|
E|-1-1-------3-3-3---3---3-3-3---3-1-1-------3-3-3---3---3-3-3---3-|

  Sail On Sail Away...
03:54
e|-----------------------------------------|
B|-----5-5-----------------------------5-5-|
G|-2-2-5-5-------------------------2-2-5-5-|
D|-3-3-5-5---------0-----------0---3-3-5-5-|
A|-3-3-3-3-0-----------0-----------3-3-3-3-|
E|-1-1-------3-3-3---3---3-3-3---3-1-1-----|


BRIDGE #3 (DISTORTED)

04:01-04:48
e|-255-255-25---------|
B|-355-355-35-5-5-5-5-|
G|-222-222-22-5-5-5-5-|
D|------------5-5-5-5-|
A|------------3-3-3-3-|
E|--------------------|


EXTRO SOLO (DISTORTED)

04:21
e|------------------------------------------------------|
B|------------------------------------------------------|
G|-17b19-17b19~-17b18-17b18-17-15-14--------------------|
D|-----------------------------------17-15-15b17-15b17~-|
A|------------------------------------------------------|
E|------------------------------------------------------|

04:26
e|---------------------------------------------|
B|--------------17-15--------------------------|
G|-17b19-17b19~-------17-16-14h16p14-16-17b19~-|
D|---------------------------------------------|
A|---------------------------------------------|
E|---------------------------------------------|

04:31
e|------------------------------------------------|
B|------------------------------------------------|
G|-17b19-17b19~-17-16-14-------------14b16-14b16~-|
D|-----------------------17-15-17-15--------------|
A|------------------------------------------------|
E|------------------------------------------------|

04:36
e|------------------------------------------------|
B|-----------------------------------20b22-20b22~-|
G|-17b19-17b19~-17-16-14-16-17-16-17--------------|
D|------------------------------------------------|
A|------------------------------------------------|
E|------------------------------------------------|

04:41 (Fade Out)
e|----------------------------------------------------|
B|-20-22--------20-22-20-22-20-22--------20-22--------|
G|-------19-19~-------------------19-19~-------19-19~-|
D|----------------------------------------------------|
A|----------------------------------------------------|
E|----------------------------------------------------|


| b  Bend To (Push String Up Or Down Within Same Fret To Desired Note)
| r  Release To (Let String Play From A Bent Position To An Unbent Position)
| /  Slide Up (Slide From Current Note To Next Note Or Toward Guitar Body)
| \  Slide Down (Slide From Current Note To Next Note Or Toward Guitar Head)
| h  Hammer-On (Press A Finger Down Quick And Hard To Achieve Next Note)
| p  Pull-Off (Pull Off And Slightly Down To Let Next Note Ring)
| ~  Hold Note (Let Current Note Ring, Vibrato Might Be Assumed)
| +  Harmonic (Lightly Touch String Over A Sweet Spot And Pluck)
| x  Rhythmic Chuck Note (Touch Strings, Dont Push To Board, Strum)
| v  Vibrato (Bend String Up And Down Rapidly, Very Slight Bends)
            
Submit corrections


        Sail On Sail Away lessons Hard to play? Try these video lessons and learn fast Sail On Sail Away lessons
        
↑ Back to top | Tablatures and chords for acoustic guitar and electric guitar, ukulele, drums are parodies/interpretations of the original songs. You may use it for private study, scholarship, research or language learning purposes only