» » »

Mott The Hoople - Whiskey Women Chords

Artists:  A B C D E F G H I J K L M N O P Q R S T U V W X Y Z # 

Whiskey Women Chords

(ver. 1) Click to play this song!
Mott The Hoople
 Rating:
4.3/5 (9 votes)

 Whiskey Women lessons Tabs too difficult? Try these video lessons and learn fast
 
                [Intro]
A  G  E  x3
E

[Verse 1]
E                    A  A7           E
Who do you think you are, looking at me like that
B5       D5      A              E
Put your face on someone else's head
E                         A A7         E
Where do you think you're at, hanging around my leg
B5      D5      A              E
Put yourself in someone else's bed

[Chorus]
        A    A7         E
Whiskey women, American lay
        A    A7         E
Whiskey women, American way

[Intro]
A  G  E  x3
E

[Verse 2]
E                     A A7             E
What do you want from me, clutchin' at my blue jeans
B5        D5         A                    E
You don't know where those old jeans have been
E                  A   A7                E
Why do you look so hurt, when I tell you where to go
B5          D5      A                   E
You've been there before from what I've seen

[Chorus]
        A    A7         E
Whiskey women, American lay
        A    A7         E
Whiskey women, American way

[Interlude]
   E             G             A             E
e|-------------|-------------|-------------|---------------|
B|-------------|-------------|-------------|---------------|
G|-------------|-------------|-------------|---------------|  x2
D|-0-1-2-------|-0-1-2-------|-0-1-2-------|-0-1-2---------|  
A|-------0-1-2-|-------0-1-2-|-------0-1-2-|-------0-1-2---|
E|-------------|-------------|-------------|---------------| 

[Intro]
A  G  E  x3
E

[Verse 3]
E                    A  A7           E
Who do you think you are, looking at me like that
B5       D5      A              E
Put your face on someone else's head
E                         A A7         E
Where do you think you're at, hanging around my neck
B5      D5      A              E
Put yourself in someone else's bed

[Chorus]
        A    A7         E
Whiskey women, American lay
        A    A7         E
Whiskey women, American way

[Outro]
   E             G             A             E
e|-------------|-------------|-------------|---------------|
B|-------------|-------------|-------------|---------------|
G|-------------|-------------|-------------|---------------|
D|-0-1-2-------|-0-1-2-------|-0-1-2-------|-0-1-2---------|
A|-------0-1-2-|-------0-1-2-|-------0-1-2-|-------0-1-2---|
E|-------------|-------------|-------------|---------------|
            
Submit corrections


        Whiskey Women lessons Hard to play? Try these video lessons and learn fast Whiskey Women lessons
        
↑ Back to top | Tablatures and chords for acoustic guitar and electric guitar, ukulele, drums are parodies/interpretations of the original songs. You may use it for private study, scholarship, research or language learning purposes only