Home » M » Mott The Hoople »

Mott The Hoople - All The Young Dudes Tabs

Artists:  A B C D E F G H I J K L M N O P Q R S T U V W X Y Z # 

All The Young Dudes Tabs

(ver. 3) Click to play this song!
Mott The Hoople
Here's the ELECTRIC GUITAR ONLY for the ENTIRE SONG. The ENTIRE SONG wasn't available on 
so I figured it would be good idea to tab it.


e|-14-------14-12h14p12h14p12-------------------------------------------------|
b|----15----------------------14-15-------15-14h15p14h15p14-12----12h14-14-14-|
g|-------14-------------------------16-------------------------14-------------|
d|-------------------------------------16-------------------------------------|
a|----------------------------------------------------------------------------|
e|----------------------------------------------------------------------------|

e|-------------------------------------14b~~-2~~-|
b|-14-13-12-------12h14-14-14-14-13-12-19b~~-3~~-|
g|----------14~~~----------------------------2~~-| INTRO
d|-------------------------------------------0~~-|
a|-----------------------------------------------|
e|-----------------------------------------------|

e|------2-2-2~-2~-|
b|------3-3-2~-3~-|
g|-2~~~-2-2-2~-2~-| FILL 1
d|-2~~~-0-0-0~-0~-|
a|-0~~~-----------|
e|----------------|

e|---------2-2-2~-2~-|
b|---------3-3-2~-3~-|
g|-2~-2~~~-2-2-2~-2~-| FILL 2
d|-2~-2~~~-0-0-0~-0~-|
a|-0~-0~~~-----------|
e|-------------------|


e|------2-2-2~-2~-2-2-2-2-2-2-2-2-2-2-2~~~~-|
b|------3-3-2~-3~-3-3-3-3-3-3-3-3-3-3-3~~~~-|
g|-2~~~-2-2-2~-2~-2-2-2-2-2-2-2-2-2-2-2~~~~-| PRE CHORUS
d|-2~~~-0-0-0~-0~-0-0-0-0-0-0-0-0-0-0-0~~~~-|
a|-0~~~-------------------------------------|
e|------------------------------------------|

e|--------------|
b|--------------|
g|-4-5-6-7~~~~~-| FILL 3
d|-4-5-6-7~~~~~-|
a|-2-3-4-5~~~~~-|
e|--------------|

e|-----------------------------------------|
b|-----------------------------------------|
g|-----------------------------------------| FILL 4
d|-7~~~~-5h7-7-5h7-7-5h7-7-5h7-7-5h7-7~~~~-|
a|-----------------------------------------|
e|-----------------------------------------|

ORDER

intro      x1
fill 1     x1
fill 2     x1
pre chorus x1
fill 3     x2
fill 2     x2
fill 3     x2
fill 2     x2
pre chorus x1
fill 3     x5
            
Submit corrections

↑ Back to top | Tablatures and chords for acoustic guitar and electric guitar, ukulele, drums are parodies/interpretations of the original songs. You may use it for private study, scholarship, research or language learning purposes only