» » »

Mott The Hoople - Born Late 5 Tabs

Artists:  A B C D E F G H I J K L M N O P Q R S T U V W X Y Z # 

Born Late 5 Tabs

(ver. 1) Click to play this song!
Mott The Hoople
 Rating:
4/5 (4 votes)

 Born Late 5 lessons Tabs too difficult? Try these video lessons and learn fast
 
                Mott The Hoople - Born Late 58' (O. Watts)
Album - The Hoople
Released - 1974


 Intro:                  Fill 1:
e|-------------3---|--3-|-17/ top.-|
b|-5-x-x-5-x-5-4-3-|--3-|----------|
g|-6-x-x-6-x-6-5-6-|--6-|----------|
d|-7-x-x-7-x-7-5-5-|--5-|----------|
a|-7-x-x-7-x-7-3-5-|--5-|----------|
e|-5-x-x-5-x-5---3-|--3-|----------|

Verse:                        Fill2:
e|-----------------------------|-9bbbbbbbbbbbb----|
b|-5-5-x-5-x-5-5-x-5-3-x-x-3-3-|------------------|
g|-6-6-x-6-x-6-6-x-6-4-x-x-4-4-|------------------|
d|-7-7-x-7-x-7-7-x-7-5-x-x-5-5-|------------------|
a|-7-7-x-7-x-7-7-x-7-5-x-x-5-5-|------------------|
e|-5-5-x-5-x-5-5-x-5-3-x-x-3-3-|------------------|

Refrain:
e|-------------------------------------|------------|
b|-----------------3-3-3-3-------5-----|------------|
g|-----------------4-4-4-4-4-4-4-4-----|------------|
d|-----------------5-5-5-5-4-4-4-5-----|-------2----|
a|-----------------5-5-5-5-2-2-2-5-----|-------2----|
e|-5-4-3-0-5-4-3-0-3-3-3-3-------3-etc.|-5-0-3-0----|


Verse2:                        Fill3:
e|-----------------------------|-5b-3b---------|
b|-5-5-x-5-x-5-5-x-5-3-x-x-3-3-|------5b-3b----|
g|-6-6-x-6-x-6-6-x-6-4-x-x-4-4-|------------3b-|
d|-7-7-x-7-x-7-7-x-7-5-x-x-5-5-|---------------|
a|-7-7-x-7-x-7-7-x-7-5-x-x-5-5-|---------------|
e|-5-5-x-5-x-5-5-x-5-3-x-x-3-3-|---------------|

Refrain:
e|-------------------------------------|------------|
b|-----------------3-3-3-3-------5-----|------------|
g|-----------------4-4-4-4-4-4-4-4-----|------------|
d|-----------------5-5-5-5-4-4-4-5-----|-------2----|
a|-----------------5-5-5-5-2-2-2-5-----|-------2----|
e|-5-4-3-0-5-4-3-0-3-3-3-3-------3-etc.|-5-0-3-0----|
You'll figure it out.

Bridge:
e|-------------3---|
b|-5-x-x-5-x-5-4-3-|
g|-6-x-x-6-x-6-5-6-|
d|-7-x-x-7-x-7-5-5-|
a|-7-x-x-7-x-7-3-5-|
e|-5-x-x-5-x-5---3-|

Pre solo:
|------------------|
|-3-3-3-3-3--------|
|-4-4-4-4-4--------|
|-5-5-5-5-5--------|
|-5-5-5-5-5--------|
|-3-3-3-3-3--------|

Rhytm during Solo:
Can't hear it... Same goes with the piano solo.

Solo:
|-?-|
|-?-|
|-?-|
|-?-|
|-?-|
|-?-|Whole lotta' noise in the beginning... just slide on the deepest strings so you
get the same "feeling"...

Verse 3:                 Fill 4:
e|-----------------------------|-10b------|
b|-5-5-x-5-x-5-5-x-5-3-x-x-3-3-|-----10-8-|
g|-6-6-x-6-x-6-6-x-6-4-x-x-4-4-|----------|
d|-7-7-x-7-x-7-7-x-7-5-x-x-5-5-|----------|
a|-7-7-x-7-x-7-7-x-7-5-x-x-5-5-|----------|
e|-5-5-x-5-x-5-5-x-5-3-x-x-3-3-|----------|

Refrain:
e|-------------------------------------|------------|
b|-----------------3-3-3-3-------5-----|------------|
g|-----------------4-4-4-4-4-4-4-4-----|------------|
d|-----------------5-5-5-5-4-4-4-5-----|-------2----|
a|-----------------5-5-5-5-2-2-2-5-----|-------2----|
e|-5-4-3-0-5-4-3-0-3-3-3-3-------3-etc.|-5-0-3-0----|

Then:
e|-------------3---|
b|-5-x-x-5-x-5-4-3-|
g|-6-x-x-6-x-6-5-6-|
d|-7-x-x-7-x-7-5-5-|
a|-7-x-x-7-x-7-3-5-|
e|-5-x-x-5-x-5---3-|

That's All Folks!
Enjoy etc.
            
Submit corrections


        Born Late 5 lessons Hard to play? Try these video lessons and learn fast Born Late 5 lessons
        
↑ Back to top | Tablatures and chords for acoustic guitar and electric guitar, ukulele, drums are parodies/interpretations of the original songs. You may use it for private study, scholarship, research or language learning purposes only