Home » M » Motorpsycho »

Motorpsycho - The Tower Tabs

Artists:  A B C D E F G H I J K L M N O P Q R S T U V W X Y Z # 

The Tower Tabs

(ver. 1) Click to play this song!
Motorpsycho
[Intro/Outro]
e|-8--8--10-10-10-10-10-12-12-12-13-13-13-13-15-----------|
B|-11-9--9--8--11-11-10-10-10-10-10-10-11-11-16-----------|
G|-------------------------------------------15-----------|
D|--------------------------------------------------------|
A|--------------------------------------------------------|
E|--------------------------------------------------------|

[Main Riff]
e|--------------------|-----------------------|------------------------|
B|--------------------|-----------------------|------------------------|
G|--------------------|-----------------------|------------------------|
D|-------------8-10---|-------------8-10------|-------------8-10-10/12-|
A|------8---11------8-|------8---11------8/10-|------8---11------------|
E|-8-11---------------|-8-11------------------|-8-11-------------------|

[Verse]
e|--------------------------------|---------------|--------------|
B|--------------------------------|---------------|--------------|
G|-6---6---6---6---8---8---8---8--|---------------|-8----------9-|
D|-8---8---8---8---10--10--10--10-|-play 4x, then-|-10------10---|
A|-8---8---8---8---10--10--10--10-|---------------|-10-----------|
E|-6---6---6---6---8---8---8---8--|---------------|-8------------|

[Chorus]
e|----13----13-------------------------------------------------------------|
B|-13----13----13----------------------------------------------------------|
G|----------------13-12h13-15-13p12-10-13p12-10-12p10----------------------|
D|----------------------------------------------------13-------10----------|
A|-------------------------------------------------------11h13----13p11-10-|
E|-------------------------------------------------------------------------|

e|----13-16-15p13----------------------------------------------------------|
B|-13-------------13-------------------------------------------------------|
G|-------------------12h13-15-13p12----13p12----------12-12----------------|
D|----------------------------------15-------15-13h15----------------------|
A|-------------------------------------------------------------------------|
E|-------------------------------------------------------------------------|

e|----13----13----------------------------------------------------------------|
B|-13----13----13-------------------------------------------------------------|
G|----------------13-12h13-15-13p12----13p12----12----------------------------|
D|----------------------------------15-------15----15-------------------------|
A|----------------------------------------------------13-13h15p13----------13-|
E|----------------------------------------------------------------16-15h16----|

e|----13-16-15p13----------------------------------------------------------|
B|-13-------------13-------------------------------------------------------|
G|-------------------12h13-15-13p12----13p12----12h13-15-15/17-------------|
D|----------------------------------15-------15----------------------------|
A|-------------------------------------------------------------------------|
E|-------------------------------------------------------------------------|

[Riff into Bridge 1]
e|--------------------------------------------------------------------|
B|--------------------------------------------------------------------|
G|--------------------5-----------------------------------------------|
D|---------------6--------6---9----6---8---6-5------5-----5---6-5---0-|
A|-8---8-7-6-5------------------------------------8-----8---------8---|
E|--------------------------------------------------------------------|

[Bridge 1]
e|-1----3----2------3-----3-------3---------|
B|-1------3--3--------3-----3-------3-------|
G|-2---------2----0-----2-----2h3-----3-2-0-|
D|-0----------------------------------------|
A|------------------------------------------|
E|------------------------------------------|

e|-1----3----2-------3--------5--------6--------8---|
B|-1------3--3--------------------------------------|
G|-2---------2---2/3---3--3/5---5--6/7---7--7/9---9-|
D|--------------------------------------------------|
A|--------------------------------------------------|
E|--------------------------------------------------|

e|-10-----------7-----5--------7----5---3-----------|
B|-10-------------8---6--------8-8--6---3-----------|
G|-10--------------------------7----5---3-----------|
D|--------------------------------------------------|
A|--------------------------------------------------|
E|--------------------------------------------------|

e|-1----3----2-------3--------5--------6--------8---|
B|-1------3--3--------------------------------------|
G|-2---------2---2/3---3--3/5---5--6/7---7--7/9---9-|
D|--------------------------------------------------|
A|--------------------------------------------------|
E|--------------------------------------------------|

e|-10-10-10-10-10-10-10-10-10-10-10-10-|
B|-10-10-10-10-10-10-10-10-10-10-10-10-|
G|-10-10-10-10-10-10-10-10-10-10-10-10-|
D|-------------------------------------|
A|-------------------------------------|
E|-------------------------------------|


[Solo] -> anyone wants to contribute here?

then [Bridge 1]

[Outro of Bridge]
e|--------------------------------------------------------|
B|-15---17---17---15-/-13---(15)-12---10-/-8---8---6------|
G|--------------------------------------------------------|
D|--------------------------------------------------------|
A|--------------------------------------------------------|
E|--------------------------------------------------------|

e|------------------------------------------|
B|------------------------------------------|
G|-7---/----9---7/9---7-/-5-----------------|
D|----------------------------7/9---7-/-5---|
A|------------------------------------------|
E|------------------------------------------|

e|-----------------------------------|
B|-----------------------------------|
G|----------------------5/7---9------|
D|-3/5---7---9---9/10----------------|
A|-----------------------------------|
E|-----------------------------------|
            
Submit corrections

↑ Back to top | Tablatures and chords for acoustic guitar and electric guitar, ukulele, drums are parodies/interpretations of the original songs. You may use it for private study, scholarship, research or language learning purposes only