» » »

Motor Ace - Criminal Past Tabs

Artists:  A B C D E F G H I J K L M N O P Q R S T U V W X Y Z # 

Criminal Past Tabs

(ver. 1) Click to play this song!
Motor Ace
 Rating:
4/5 (4 votes)

 Criminal Past lessons Tabs too difficult? Try these video lessons and learn fast
 
                ------------------Motor Ace - Criminal Past----------------------------

Intro

e--------------------------------------
B--------------------------------------
G----44----44-----------6-----------4--
D----XX----XX-----------X-----------X--
A----22----22-----------4-----------2--
E-22----22----4444-4444---2222-2222----
  ..    ..    .... ....   .... ....

Verse

e--------------------------------------------
B--------------------------------------------
G----44----44-------------44----44-----------
D----Xx----Xx-------------xX----Xx----------- X4
A----22----22-------------22----22-----------
E-22----22-------------22----22----4444-4444-
  ..    ..             ..    ..    .... ....

Pre-chorus

Played By Bass

Chorus

e---------------------------------------------
B---------------------------------------------
G-7*------9*------7*------9*------------------
D-X*------X*------X*------X*------44XXXX44-2*-
A-5*------7*------5*------7*------44XXXX44-2*-
E---------------------------------22XXXX22-0*-

Post Chorus

e----------------------------------
B----------------------------------
G----------------------------------
D----4-2----4-2--------4-2----4-2--
A----------------------------------
E-22-----22---------22-----22------
  ..     ..         ..     ..

e---------------
B---------------
G-----------66--
D-----------XX-- X3
A-----------44--
E-4444-4444-----
  .... ....


PLAY VERSE


PLAY PRE CHORUS


Interlude

e--------------------------------------------------------------------------
B--------------------------------------------------------------------------
G-66-66-66-66----66-66-66-66---------66-66-66-66---------66-66-66-66----9B-
D-----------------------------77-44---------------77-99--------------------
A-----------------------------77-44---------------77-99--------------------
E-----------------------------55-22---------------55-77--------------------

DO THE LAST NOTE IF U DONT HAVE A WHISTLE


Play chorus

Outro

e--------------------              -----------------------------------
B--------------------              -----------------------------------
G-5555-6666-77777777- X3 AND THEN  -5555-6666-777-7777-777-7-7-7------
D--------------------              --------------------------------7*-
A--------------------              ------------------------------7-7*-
E--------------------              --------------------------------5*-

Very easy song
Great interlude
KEEP AUSSIE BANDS ALIVE
            
Submit corrections


        Criminal Past lessons Hard to play? Try these video lessons and learn fast Criminal Past lessons
        
↑ Back to top | Tablatures and chords for acoustic guitar and electric guitar, ukulele, drums are parodies/interpretations of the original songs. You may use it for private study, scholarship, research or language learning purposes only