» » »

Motor Ace - Carry On Tabs

Artists:  A B C D E F G H I J K L M N O P Q R S T U V W X Y Z # 

Carry On Tabs

(ver. 1) Click to play this song!
Motor Ace
 Rating:
4/5 (4 votes)

 Carry On lessons Tabs too difficult? Try these video lessons and learn fast
 
                
This is a rather cool song, so here is a rather cool tab for it :P.
If you want to use this tab for your own site or whatever, just
might just let you use it.  Either way, rock on peoples.
 
CAPO 1ST FRET


INTRO/CHORUS:
-------------

e|--3--3--3--3---3--3--3--3-|
B|--3--3--3--3---3--3--3--3-|
G|--0--2--0--0---0--2--0--2-|
D|--2--0--0--2---2--0--0--0-|
A|--2--x--2--3---2--x--2--0-|
E|--0--x--3--x---0--x--3--2-|
 

VERSE:
------

e|--3--3--2---3--3--3--3--|
B|--3--3--3---3--3--3--3--|
G|--0--0--4---0--2--0--2--|
D|--2--0--4---2--0--2--0--|
A|--2--2--2---3--x--3--x--|
E|--0--3--x---x--x--x--x--|




---------------------------------------------
---------------------------------------------
            
Submit corrections


        Carry On lessons Hard to play? Try these video lessons and learn fast Carry On lessons
        
↑ Back to top | Tablatures and chords for acoustic guitar and electric guitar, ukulele, drums are parodies/interpretations of the original songs. You may use it for private study, scholarship, research or language learning purposes only