Home » M » Motley Crue »

Motley Crue - Misunderstood Tabs

Artists:  A B C D E F G H I J K L M N O P Q R S T U V W X Y Z # 

Misunderstood Tabs

(ver. 1) Click to play this song!
Motley Crue
(silkmoth- on the  message board)

tuning: C G C F A D

 Intro
 
  D       D/C       D/B     D/A

  Gtr I
|-----------------|---------------------|
|-----------------|---------------------|
|-----------------|---------------------|
|---0-4-----0-4---|---0-4-----0-4-------|
|-5-----5-3-----3-|-2-----2-0-----------|
|-----------------|---------------3b3.5-|


  D       D/C       D/B     D/A
|-----------------|---------------------||
|-----------------|---------------------||
|-----------------|---------------------||
|-----4-----0-4---|---0-4-----0-4-------||
|---5---5-3-----3-|-2-----2-0-----------||
|-0---------------|---------------3b3.5-||


 1st Verse
  D       D/C       D/B     D/A
|-----------------|---------------------|
|-----------------|---------------------|
|-----------------|---------------------|
|-----4-----0-4---|---0-4-----0-4-------|
|---5---5-3-----3-|-2-----2-0-----------|
|-0---------------|---------------3b3.5-|


  D       D/C       D/B     D/A
|-----------------|----------------------|
|-----------------|----------------------|
|-----------------|----------------------|
|-----4-----0-4---|---0-4-----0-4--------|
|---5---5-3-----3-|-2-----2-0------------|
|-0---------------|---------------3b3.5--|


  D       D/C       D/B     D/A
|-----------------|---------------------|
|-----------------|---------------------|
|-----------------|---------------------|
|-----4-----0-4---|---0-4-----0-4-------|
|---5---5-3-----3-|-2-----2-0-----------|
|-0---------------|---------------3b3.5-|


  D       D/C       D/B     D/A
|-----------------|----------------------||
|-----------------|----------------------||
|-----------------|----------------------||
|-----4-----0-4---|---0-4-----0-4--------||
|---5---5-3-----3-|-2-----2-0------------||
|-0---------------|---------------3b3.5--||


 Chorus
  A             G/B               D/A
|--0---0-----0---3----3--3--3-3-|--2--------2-----2--2--2--------2-----2--2-|
|--2---2-----2---0----0--0--0-0-|--3--------3-----3--3--3--------3-----3--3-|
|--2---2-----2---0----0--0--0-0-|--2--------2-----2--2--2--------2-----2--2-|
|--2---2-----2---0----0--0--0-0-|--0--------0-----0--0--0--------0-----0--0-|
|--0---0-----0---2----2--2--2-2-|--0--------0-----0--0--0--------0-----0--0-|
|-------------------------------|-------------------------------------------|
|
| Gtr II
|-12--12-12-12--15-15---15-15---|-14-14-14-14-14-14-------------------------|
|-14--14-14-14--15-15---15-15---|-15-15-15-15-15-15----15-15----------------|
|-14--14-14-14--14-14---14-14---|-14-14-14-14-14-14-14-------16-14-------14-|
|-------------------------------|----------------------------------15h16----|
|-------------------------------|-------------------------------------------|
|-------------------------------|-------------------------------------------|


  A             G/B               D/A
|--0---0-----0---3----3--3--3-3-|--2--------2-----2--2--2--------2-----2--2-|
|--2---2-----2---0----0--0--0-0-|--3--------3-----3--3--3--------3-----3--3-|
|--2---2-----2---0----0--0--0-0-|--2--------2-----2--2--2--------2-----2--2-|
|--2---2-----2---0----0--0--0-0-|--0--------0-----0--0--0--------0-----0--0-|
|--0---0-----0---2----2--2--2-2-|--0--------0-----0--0--0--------0-----0--0-|
|-------------------------------|-------------------------------------------|
|
|-12--12-12-12--15-15---15-15---|-14-14-14-14-14-14-------------------------|
|-14--14-14-14--15-15---15-15---|-15-15-15-15-15-15----15-15----------------|
|-14--14-14-14--14-14---14-14---|-14-14-14-14-14-14-14-------16-14----------|
|-------------------------------|----------------------------------15h16-12-|
|-------------------------------|-------------------------------------------|
|-------------------------------|-------------------------------------------|


  A             G/B
|--0---0-----0---3----3--3--3-3--|
|--2---2-----2---0----0--0--0-0--|
|--2---2-----2---0----0--0--0-0--|
|--2---2-----2---0----0--0--0-0--|
|--0---0-----0---2----2--2--2-2--|
|--------------------------------|
|
|-12--12-12-12--15-15---15-15----|
|-14--14-14-14--15-15---15-15----|
|-14--14-14-14--14-14---14-14----|
|--------------------------------|
|--------------------------------|
|--------------------------------|


  D/A                                         A    G/B    D/A
|--2--------2-----2--2--2--------2-----2--2-|-0----3----|-2----||
|--3--------3-----3--3--3--------3-----3--3-|-2----0----|-3----||
|--2--------2-----2--2--2--------2-----2--2-|-2----0----|-2----||
|--0--------0-----0--0--0--------0-----0--0-|-2----0----|-0----||
|--0--------0-----0--0--0--------0-----0--0-|-0----2----|-0----||
|-------------------------------------------|-----------|------||
|
|-14-14-14-14-14-14-------------------------|-----------|------||
|-15-15-15-15-15-15----15-15----------------|-----------|------||
|-14-14-14-14-14-14-14-------16-14----------|-----------|------||
|----------------------------------15h16-12-|-----------|------||
|-------------------------------------------|-----------|------||
|-------------------------------------------|-----------|------||


 Interlude
  D       D/C       D/B     D/A       D       D/C       D/B     D/A
  Gtr III
|---0-4-----0-4---|---0-4-----0-4---|---0-4-----0-4---|---0-4-----0-4----|
|-5-----5-3-----3-|-2-----2-0-----3-|-5-----5-3-----3-|-2-----2-0-----3--|
|-----------------|-----------------|-----------------|------------------|
|-----------------|-----------------|-----------------|------------------|
|-----------------|-----------------|-----------------|------------------|
|-----------------|-----------------|-----------------|------------------|


  D       D/C       D/B     D/A       D       D/C       D/B     D/A
|---0-4-----0-4---|---0-4-----0-4---|---0-4-----0-4---|---0-4-----0-4----|
|-5-----5-3-----3-|-2-----2-0-----3-|-5-----5-3-----3-|-2-----2-0-----3--|
|-----------------|-----------------|-----------------|------------------|
|-----------------|-----------------|-----------------|------------------|
|-----------------|-----------------|-----------------|------------------|
|-----------------|-----------------|-----------------|------------------|


  D       D/C       D/B     D/A       D       D/C       D/B     D/A
|---0-4-----0-4---|---0-4-----0-4---|---0-4-----0-4---|---0-4-----0-4----||
|-5-----5-3-----3-|-2-----2-0-----3-|-5-----5-3-----3-|-2-----2-0-----3--||
|-----------------|-----------------|-----------------|------------------||
|-----------------|-----------------|-----------------|------------------||
|-----------------|-----------------|-----------------|------------------||
|-----------------|-----------------|-----------------|------------------||


 Chorus
  A             G/B               D/A
  Gtr I
|--0---0-----0---3----3--3--3-3-|--2--------2-----2--2--2--------2-----2--2-|
|--2---2-----2---0----0--0--0-0-|--3--------3-----3--3--3--------3-----3--3-|
|--2---2-----2---0----0--0--0-0-|--2--------2-----2--2--2--------2-----2--2-|
|--2---2-----2---0----0--0--0-0-|--0--------0-----0--0--0--------0-----0--0-|
|--0---0-----0---2----2--2--2-2-|--0--------0-----0--0--0--------0-----0--0-|
|-------------------------------|-------------------------------------------|
|
| Gtr II
|-12--12-12-12--15-15---15-15---|-14-14-14-14-14-14-------------------------|
|-14--14-14-14--15-15---15-15---|-15-15-15-15-15-15----15-15----------------|
|-14--14-14-14--14-14---14-14---|-14-14-14-14-14-14-14-------16-14-------14-|
|-------------------------------|----------------------------------15h16----|
|-------------------------------|-------------------------------------------|
|-------------------------------|-------------------------------------------|


  A             G/B               D/A
|--0---0-----0---3----3--3--3-3-|--2--------2-----2--2--2--------2-----2--2-|
|--2---2-----2---0----0--0--0-0-|--3--------3-----3--3--3--------3-----3--3-|
|--2---2-----2---0----0--0--0-0-|--2--------2-----2--2--2--------2-----2--2-|
|--2---2-----2---0----0--0--0-0-|--0--------0-----0--0--0--------0-----0--0-|
|--0---0-----0---2----2--2--2-2-|--0--------0-----0--0--0--------0-----0--0-|
|-------------------------------|-------------------------------------------|
|
|-12--12-12-12--15-15---15-15---|-14-14-14-14-14-14-------------------------|
|-14--14-14-14--15-15---15-15---|-15-15-15-15-15-15----15-15----------------|
|-14--14-14-14--14-14---14-14---|-14-14-14-14-14-14-14-------16-14----------|
|-------------------------------|----------------------------------15h16-12-|
|-------------------------------|-------------------------------------------|
|-------------------------------|-------------------------------------------|


  A             G/B
|--0---0-----0---3----3--3--3-3--|
|--2---2-----2---0----0--0--0-0--|
|--2---2-----2---0----0--0--0-0--|
|--2---2-----2---0----0--0--0-0--|
|--0---0-----0---2----2--2--2-2--|
|--------------------------------|
|
|-12--12-12-12--15-15---15-15----|
|-14--14-14-14--15-15---15-15----|
|-14--14-14-14--14-14---14-14----|
|--------------------------------|
|--------------------------------|
|--------------------------------|


  D/A                                         A    G/B    D/A
|--2--------2-----2--2--2--------2-----2--2-|-0----3----|-2----||
|--3--------3-----3--3--3--------3-----3--3-|-2----0----|-3----||
|--2--------2-----2--2--2--------2-----2--2-|-2----0----|-2----||
|--0--------0-----0--0--0--------0-----0--0-|-2----0----|-0----||
|--0--------0-----0--0--0--------0-----0--0-|-0----2----|-0----||
|-------------------------------------------|-----------|------||
|
|-14-14-14-14-14-14-------------------------|-----------|------||
|-15-15-15-15-15-15----15-15----------------|-----------|------||
|-14-14-14-14-14-14-14-------16-14----------|-----------|------||
|----------------------------------15h16-12-|-----------|------||
|-------------------------------------------|-----------|------||
|-------------------------------------------|-----------|------||


 2nd Verse
                                      Csus2      G/B
  Gtr IV
|----------|-------------------------------|-----------------------------|
|----------|-------------------------------|------3-3-(3)----------------|
|----------|-------------------------------|------0-0-(0)----------------|
|----------|-----------3p0-----------------|------2-0-(0)-------0--------|
|----------|-------------------------0-2-3-|-(3)--3-2-(2)-0-2-3---2------|
|--------0-|-(0)-0-3p0-------0-3-0-3-------|------------------------3-0--|


  N.C.                        Csus2      G/B
|-------------------------------|----------------------------|
|-------------------------------|------3-3-(3)---------------|
|-------------------------------|------0-0-(0)---------------|
|-----------3p0-----------------|------2-0-(0)-------0-------|
|-------------------------0-2-3-|-(3)--3-2-(2)-0-2-3---2-----|
|-(0)-0-3p0-------0-3-0-3-------|------------------------3-0-|


  N.C.                        Csus2
|---------------------------------|
|---------------------------------|
|---------------------------------|
|-----------3p0-------------------|
|-------------------------0-2-3---|
|-(0)-0-3p0-------0-3-0-3---------|


         G/B                   N.C.                        Csus2
|----------------------------|-------------------------------|
|------3-3-(3)---------------|-------------------------------|
|------0-0-(0)---------------|-------------------------------|
|------2-0-(0)-------0-------|-----------3p0-----------------|
|-(3)--3-2-(2)-0-2-3---2-----|-------------------------0-2-3-|
|------------------------3-0-|-(0)-0-3p0-------0-3-0-3-------|


         G/B
|----------------------------||
|------3-3-(3)---------------||
|------0-0-(0)---------------||
|------2-0-(0)-------0-------||
|-(3)--3-2-(2)-0-2-3---2-----||
|------------------------3-0-||


 3rd Verse
  N.C.              Csus2        G/B
|-------------------0-|-(0)--(0)---------------------|
|-------------------3-|-(3)--(3)-3-(3)---------------|
|-------------------0-|-(0)--(0)-0-(0)---------------|
|-----------3p0-----2-|-(2)--(2)-0-(0)-------0-------|
|-------------------3-|-(3)--(3)-2-(2)-0-2-3---2-----|
|-(0)-0-3p0-----------|--------------------------3-0-|


  N.C.              Csus2        G/B
|-------------------0-|-(0)--(0)----------------------|
|-------------------3-|-(3)--(3)-3-(3)----------------|
|-------------------0-|-(0)--(0)-0-(0)----------------|
|-----------3p0-----2-|-(2)--(2)-0-(0)-------0--------|
|-------------------3-|-(3)--(3)-2-(2)-0-2-3---2------|
|-(0)-0-3p0-----------|--------------------------3-0--|


  N.C.              Csus2        G/B
|-------------------0-|-(0)--(0)---------------------|
|-------------------3-|-(3)--(3)-3-(3)---------------|
|-------------------0-|-(0)--(0)-0-(0)---------------|
|-----------3p0-----2-|-(2)--(2)-0-(0)-------0-------|
|-------------------3-|-(3)--(3)-2-(2)-0-2-3---2-----|
|-(0)-0-3p0-----------|--------------------------3-0-|


  N.C.              Csus2        G/B
|-------------------0-|-(0)--(0)----------------------||
|-------------------3-|-(3)--(3)-3-(3)----------------||
|-------------------0-|-(0)--(0)-0-(0)----------------||
|-----------3p0-----2-|-(2)--(2)-0-(0)-------0--------||
|-------------------3-|-(3)--(3)-2-(2)-0-2-3---2------||
|-(0)-0-3p0-----------|--------------------------3-0--||


   Chorus
    D5     C5       G5
    PM|    PM|       PM|       PM------------
||----------------|-------------------------|
||o---------------|-------------------------|
||----------------|-------------------------|
||------7------5--|-------------------------|
||o-5-5-5--3-3-3--|-------5-----------------|
||----------------|--5-5--5----5--5---5---5-|
|
|   Gtr V
|                         ~~~~~~~~
||----------------|-------------------------|
||o---------------|-------------------------|
||------5------3--|------10--(10)---(10)---|
||----4------2----|----9--------------------|
||o-5------3------|-10----------------------|
||----------------|-------------------------|


  D5     C5       G5
 ---|    PM|       PM|
|---------------|------------------------------|
|---------------|------------------------------|
|---------------|------------------------------|
|-----7------5--|---------------------0--------|
|-5-5-5--3-3-3--|-------5-------0-2-3---2------|
|---------------|--5-5--5-----------------3-0--|
|
|                             ~~
|---------------|------------------------------|
|---------------|------------12----------------|
|-----5------3--|------10----------------------|
|---4------2----|----9----12-------------------|
|-5------3------|-10---------------------------|
|---------------|------------------------------|


                                                      
  D5     C5       G5                        Bb5        C5
  PM|    PM|       PM|       PM---------|
|---------------|-------------------------|----------|---------------||
|---------------|-------------------------|----------|---------------||
|---------------|-------------------------|-3--------|-5------(5)----||
|-----7------5--|-------------------------|-3--------|-5------(5)----||
|-5-5-5--3-3-3--|-------5-----------------|-1--------|-3------(3)----||
|---------------|--5-5--5----5--5---5---5-|----------|------------0--||
|
|                       ~~~~~~~~
|---------------|-------------------------|----------|---------------||
|---------------|-------------------------|----------|---------------||
|-----5------3--|------10--(10)---(10)---|-3--------|-5------(5)----||
|---4------2----|----9--------------------|-3--------|-5------(5)----||
|-5------3------|-10----------------------|-1--------|-3------(3)----||
|---------------|-------------------------|----------|------------0--||


  N.C.                        Csus2      G/B
|-------------------------------|----------------------------|
|-------------------------------|------3-3-(3)---------------|
|-------------------------------|------0-0-(0)---------------|
|-----------3p0-----------------|------2-0-(0)-------0-------|
|-------------------------0-2-3-|-(3)--3-2-(2)-0-2-3---2-----|
|-(0)-0-3p0-------0-3-0-3-------|------------------------3-0-|
|
|-------------------------------|----------------------------|
|-------------------------------|------3-3-(3)---------------|
|-------------------------------|------0-0-(0)---------------|
|-----------3p0-----------------|------2-0-(0)-------0-------|
|-------------------------0-2-3-|-(3)--3-2-(2)-0-2-3---2-----|
|-(0)-0-3p0-------0-3-0-3-------|------------------------3-0-|


  N.C.                        Csus2   G/B               D5
|------------------------------|----0----------------------||
|------------------------------|----3-3-(3)----------------||
|------------------------------|----0-0-(0)----------------||
|-----------3p0----------------|----2-0-(0)-------0--------||
|-------------------------0-2--|-3--3-2-(2)-0-2-3---2------||
|-(0)-0-3p0-------0-3-0-3------|----------------------3-0--||
|
|------------------------------|----0----------------------||
|------------------------------|----3-3-(3)-------------3--||
|------------------------------|----0-0-(0)-------------2--||
|-----------3p0----------------|----2-0-(0)-------0-----0--||
|-------------------------0-2--|-3--3-2-(2)-0-2-3---2------||
|-(0)-0-3p0-------0-3-0-3------|----------------------3----||


                      Csus2        G/B                 D5
|-----------------------|--------------------------------|
|---------------------3-|-(3)--(3)-3-(3)-----------------|
|---------------------0-|-(0)--(0)-0-(0)-----------------|
|-----------3p0-------2-|-(2)--(2)-0-(0)--------0--------|
|---------------------3-|-(3)--(3)-2-(2)-0-2-3-----2-----|
|-(0)-0-3p0-------------|----------------------------3-0-|
|
|-----------------------|--------------------------------|
|-(3)-------1----3--1-1-|-(1)--(1)-3-(3)-------(3)-----3-|
|-(2)-----------------0-|-(0)--(0)-0-(0)-------(0)-----2-|
|-(0)-----------------2-|-(2)--(2)-0-(0)-------(0)-----0-|
|---------------------3-|-(3)--(3)-2-(2)-------(2)-------|
|-----------------------|--------------------------------|


                      Csus2        G/B                 D5
|-----------------------|---------------------------------|
|---------------------3-|-(3)--(3)-3-(3)------------------|
|---------------------0-|-(0)--(0)-0-(0)------------------|
|-----------3p0-------2-|-(2)--(2)-0-(0)--------0---------|
|---------------------3-|-(3)--(3)-2-(2)-0-2-3-----2------|
|-(0)-0-3p0-------------|----------------------------3-0--|
|
|-----------------------|---------------------------------|
|-(3)-------1----3--1-1-|-(1)--(1)-3-(3)-------(3)-----3--|
|-(2)-----------------0-|-(0)--(0)-0-(0)-------(0)-----2--|
|-(0)-----------------2-|-(2)--(2)-0-(0)-------(0)-----0--|
|---------------------3-|-(3)--(3)-2-(2)-------(2)--------|
|-----------------------|---------------------------------|


                      Csus2        G/B                 D5
|-----------------------|--------------------------------|
|---------------------3-|-(3)--(3)-3-(3)-----------------|
|---------------------0-|-(0)--(0)-0-(0)-----------------|
|-----------3p0-------2-|-(2)--(2)-0-(0)--------0--------|
|---------------------3-|-(3)--(3)-2-(2)-0-2-3-----2-----|
|-(0)-0-3p0-------------|----------------------------3-0-|
|
|-----------------------|--------------------------------|
|-(3)-------1----3--1-1-|-(1)--(1)-3-(3)-------(3)-----3-|
|-(2)-----------------0-|-(0)--(0)-0-(0)-------(0)-----2-|
|-(0)-----------------2-|-(2)--(2)-0-(0)-------(0)-----0-|
|---------------------3-|-(3)--(3)-2-(2)-------(2)-------|
|-----------------------|--------------------------------|


                      Csus2        G/B
|-----------------------|--------------------------------||
|---------------------3-|-(3)--(3)-3-(3)----------------o||
|---------------------0-|-(0)--(0)-0-(0)-----------------||
|-----------3p0-------2-|-(2)--(2)-0-(0)-------0---------||
|---------------------3-|-(3)--(3)-2-(2)-0-2-3---2------o||
|-(0)-0-3p0-------------|--------------------------3-0---||
|
|-----------------------|--------------------------------||
|-(3)-------1----3--1-1-|-(1)--(1)-3-(3)----------------o||
|-(2)-----------------0-|-(0)--(0)-0-(0)-----------------||
|-(0)-----------------2-|-(2)--(2)-0-(0)-----------------||
|---------------------3-|-(3)--(3)-2-(2)----------------o||
|-----------------------|--------------------------------||


                   Guitar Solo
 
  C5                N.C.
|----------------||----------------------|-------------------------------------|
|----------------||----------------------|-------------------------------------|
|-5-------(5)----||----------------------|-------------------------------------|
|-5-------(5)----||-------------3p0------|-------------------------------------|
|-3-------(3)----||----------------------|----------0-2--3-(3)-2--0------------|
|--------------0-||--(0)--0-3p0----------|--0-3-0-3-----------------3b3.5----0-|
|
|----------------||----------------------|-------------------------------------|
|-------------10-||-(10)----------------|--------------/8-(8)-6--------------|
|-5-------(5)-10-||-(10)----------------|--7s5---5s7-------------5---------/5-|
|-5-------(5)-10-||-(10)----------------|------7-------------------------7----|
|-3-------(3)----||----------------------|-------------------------------------|
|----------------||----------------------|-------------------------------------|


|----------------------------------|
|----------------------------------|
|----------------------------------|
|------------3p=0------------------|
|----------------------------------|
|-(0)-0--3p0-----------------------|
|
|                           ~~~~~~
|----------------------------------|
|----------------------------------|
|-(5)---5-----5----5---5s7-(7)--|
|-----7------7-----7----7----------|
|----------------------------------|
|----------------------------------|


|-------------------------------------|----------------------------------|
|-------------------------------------|----------------------------------|
|-------------------------------------|----------------------------------|
|-------------------------------------|-----------3p0--------------------|
|------------0-2--3-(3)-2-0-----------|----------------------------------|
|---0-3-0--3----------------3b3.5---0-|-(0)-0-3p0------------------------|
|
|----------------/8-(8)-7-5-----------|----------------------------------|
|---7-8-9-10-6s7------------5s====7-7-|-(7)---7---7---8---8-8-8-8-8-9s===|
|-7-----------------------------------|-----7---7---7---8----------------|
|-------------------------------------|----------------------------------|
|-------------------------------------|----------------------------------|
|-------------------------------------|----------------------------------|


|--------------------------------------------|-----------------------------------------|
|--------------------------------------------|-----------------------------------------|
|--------------------------------------------|-----------------------------------------|
|--------------------------------------------|----------------3p=0---------------------|
|---------------0-2--3--(3)-2--0-------------|-----------------------------------------|
|----0-3-0---3-------------------3b3.5-----0-|--(0)--0--3p=0---------------------------|
|
|  ~~                                                                               ~~
|-------------------10-(10)-8-------------10-|-(10)----10----10-------10--10-10----10--|
|-10-------(10)---------------10-8s====10-10-|-(10)-10----10----10-10-----------10-----|
|--------------------------------------------|-----------------------------------------|
|--------------------------------------------|-----------------------------------------|
|--------------------------------------------|-----------------------------------------|
|--------------------------------------------|-----------------------------------------|


|--------------------------------------------||
|--------------------------------------------||
|--------------------------------------------||
|--------------------------------------------||
|---------------0--2---3--(3)--2--0----------||
|---0--3--0--3-----------------------3b3.5-0-||
|
|--10-10----10-10----/15-(15)-13-------------||
|--------10-------10-------------15---------||
|--------------------------------------------||
|--------------------------------------------||
|--------------------------------------------||
|--------------------------------------------||


  D5      E5
|--------------------|
|--------------------|
|--------------------|
|--------------------|
|--0-------2---------|
|--0-------2---------|
|
|--------------------|
|----7--------8s7----|
|-/7---7--(7)-----7--|
|--------------------|
|--------------------|
|--------------------|


  F5                   G5               D5      E5
|-------------------------------------|--------------------|
|-------------------------------------|--------------------|
|-------------------------------------|--------------------|
|-------------------------------------|--------------------|
|---3--------------------5------------|--0-------2---------|
|---3--------------------5------------|--0-------2---------|
|
|-----------8----------/10------------|--------------------|
|-----10---------10---------12s10-----|----7--------8s7----|
|-/10----10---10----10------------12--|-/7---7--(7)-----7--|
|-------------------------------------|--------------------|
|-------------------------------------|--------------------|
|-------------------------------------|--------------------|


  F5                   G5
|-------------------------------------|
|-------------------------------------|
|-------------------------------------|
|-------------------------------------|
|---3--------------------5------------|
|---3--------------------5------------|
|
|-----------8-------------------------|
|-----10---------10----/13--12s10-----|
|-/10----10---10----10------------12--|
|-------------------------------------|
|-------------------------------------|
|-------------------------------------|


|---------------------------------------------|--------------------------||
|---------------------------------------------|--------------------------||
|---------------------------------------------|--------------------------||
|--5--------5-(5)-----5----(5)--5--------5--5-|--5----5-(5)--5-(5)-5-5-5-||
|--5--------5-(5)-----5----(5)--5--------5--5-|--5----5-(5)--5-(5)-5-5-5-||
|--5--------5-(5)-----5----(5)--5--------5--5-|--5----5-(5)--5-(5)-5-5-5-||
|
|---------------------------------------------|--------------------------||
|-10-------12--------10--------12-------10-12-|-10-12---10--12-12-------||
|----10-------12--------10--------12----10-12-|-10-12---10--12-12-------||
|-------10--------12-------10--------12-------|--------------------------||
|---------------------------------------------|--------------------------||
|---------------------------------------------|--------------------------||


 Chorus
  D5     C5       G5
  PM|    PM|       PM|       PM------------
|---------------|-------------------------|
|---------------|-------------------------|
|---------------|-------------------------|
|-----7------5--|-------------------------|
|-5-5-5--3-3-3--|-------5-----------------|
|---------------|--5-5--5----5--5---5---5-|
|
|                       ~~~~~~~~
|---------------|-------------------------|
|---------------|-------------------------|
|-----5------3--|------10--(10)---(10)---|
|---4------2----|----9--------------------|
|-5------3------|-10----------------------|
|---------------|-------------------------|


  D5     C5       G5
 ---|    PM|       PM|
|---------------|-------------------------------|
|---------------|-------------------------------|
|---------------|-------------------------------|
|-----7------5--|---------------------0---------|
|-5-5-5--3-3-3--|-------5-------0-2-3---2-------|
|---------------|--5-5--5-----------------3-0---|
|
|                             ~~
|---------------|-------------------------------|
|---------------|------------12-----------------|
|-----5------3--|------10-----------------------|
|---4------2----|----9----12--------------------|
|-5------3------|-10----------------------------|
|---------------|-------------------------------|


  D5     C5       G5                        Bb5
  PM|    PM|       PM|       PM---------|
|---------------|-------------------------|------|
|---------------|-------------------------|------|
|---------------|-------------------------|-3----|
|-----7------5--|-------------------------|-3----|
|-5-5-5--3-3-3--|-------5-----------------|-1----|
|---------------|--5-5--5----5--5---5---5-|------|
|
|                       ~~~~~~~~
|---------------|-------------------------|------|
|---------------|-------------------------|------|
|-----5------3--|------10--(10)---(10)---|------|
|---4------2----|----9--------------------|------|
|-5------3------|-10----------------------|------|
|---------------|-------------------------|------|


             H.=H
  C5         D5
|----------|----------|--------||
|----------|----------|--------||
|-5--------|-7--------|-(7)----||
|-5--------|-7--------|-(7)----||
|-3--------|-5--------|-(5)----||
|----------|----------|--------||


 Outro
 
  D                 D/C
  Gtr I
|----------------------------------------|
|----------------------------------------|
|----------------------------------------|
|----0------4----------0------4----------|
|-5---------------5-3---------------3----|
|----------------------------------------|
|
| Gtr II
|------14-(14)-----------14-(14)------14-|
|---15---------15-----13---------13------|
|----------------------------------------|
|----------------------------------------|
|----------------------------------------|
|----------------------------------------|


  D/B                  D/A                    D                 D/C
|-------------------------------------------|----------------------------------------|
|-------------------------------------------|----------------------------------------|
|-------------------------------------------|----------------------------------------|
|----0------4--------------0-----4----------|-----------4----------0------4----------|
|-2---------------2-----0-------------------|----5------------5-3---------------3----|
|-------------------------------------3b3.5-|-0--------------------------------------|
|
|------14-(14)------14-10-------------------|------14-(14)-----------14-(14)------14-|
|---12---------12---------10-10-10-10-------|---15---------15-----13---------13------|
|-------------------------------------------|----------------------------------------|
|-------------------------------------------|----------------------------------------|
|-------------------------------------------|----------------------------------------|
|-------------------------------------------|----------------------------------------|


  D/B                  D/A
|-------------------------------------------|
|-------------------------------------------|
|-------------------------------------------|
|----0------4--------------0-----4----------|
|-2---------------2-----0-------------------|
|-------------------------------------3b3.5-|
|
|------14-(14)------14-10-------------------|
|---12---------12---------10-10-10-10-------|
|-------------------------------------------|
|-------------------------------------------|
|-------------------------------------------|
|-------------------------------------------|


  D                 D/C                    D/B                  D/A
|----------------------------------------|-------------------------------------------|
|----------------------------------------|-------------------------------------------|
|----------------------------------------|-------------------------------------------|
|-----------4----------0------4----------|----0------4--------------0-----4----------|
|----5------------5-3---------------3----|-2---------------2-----0-------------------|
|-0--------------------------------------|-------------------------------------3b3.5-|
|
|------14-(14)-----------14-(14)------14-|------14-(14)------14-10-------------------|
|---15---------15-----13---------13------|---12---------12---------10-10-10-10-------|
|----------------------------------------|-------------------------------------------|
|----------------------------------------|-------------------------------------------|
|----------------------------------------|-------------------------------------------|
|----------------------------------------|-------------------------------------------|


    D       D/C       D/B     D/A
||------------------|---------------------|
||o-----------------|---------------------|
||------------------|---------------------|
||------4-----0-4---|---0-4-----0-4-------|
||o---5---5-3-----3-|-2-----2-0-----------|
||--0---------------|---------------3b3.5-|


  D       D/C       D/B     D/A
                                         3x
|-----------------|----------------------||
|-----------------|---------------------o||
|-----------------|----------------------||
|-----4-----0-4---|---0-4-----0-4--------||
|---5---5-3-----3-|-2-----2-0-----------o||
|-0---------------|---------------3b3.5--||


  D                     D/C
|----------------------------------------------|
|----------------------------------------------|
|----------------------------------------------|
|-----------4---------------0------4-----------|
|----5-------------5-----3----------------3----|
|-0--------------------------------------------|
|
| Gtr II
|------14-(14)----------------14-(14)-------14-|
|---15---------15----15-13------------13-------|
|-----------------14-------14------------14----|
|----------------------------------------------|
|----------------------------------------------|
|----------------------------------------------|


  D/B                    D/A
|--------------------------------------------------|
|--------------------------------------------------|
|--------------------------------------------------|
|-----0------4---------------0-----4---------------|
|--2----------------2-----0------------------------|
|----------------------------------------3b3.5-----|
|
|-------14-(14)-------14----10---------------------|
|-12------------12-------10----10----10------------|
|----14------------14-------------11----10h====11--|
|--------------------------------------------------|
|--------------------------------------------------|
|--------------------------------------------------|


  D                   D/C
|---------------------------------------------|
|---------------------------------------------|
|---------------------------------------------|
|----------4-----------------0-----4----------|
|----5-----------5-----3-----------------3----|
|--0------------------------------------------|
|
|------17----17----17----------17----17----17-|
|------------------------15-------------------|
|---------14----14----14----14----14----14----|
|-12------------------------------------------|
|---------------------------------------------|
|---------------------------------------------|


  D/B                     D/A
|------------------------------------------------------|
|------------------------------------------------------|
|------------------------------------------------------|
|--------0-----4-----------------0-----4---------------|
|--2-----------------2-----0---------------------------|
|--------------------------------------------3b3.5-----|
|
|----------17----------17----------17----17------------|
|----15----------15----------15--------------------15--|
|-14----14----14----14----14----14----14----14---------|
|------------------------------------------------------|
|------------------------------------------------------|
|------------------------------------------------------|


  D                    D/C
|-------------------------------------------|
|-------------------------------------------|
|-------------------------------------------|
|--------------4--------------0-----4-------|
|--------5-----------5--3-----------------3-|
|--0----------------------------------------|
|
|-13s14----------------13s14----------------|
|-------15----15-------------15----15-------|
|----------14----16-14----------14----16-14-|
|-------------------------------------------|
|-------------------------------------------|
|-------------------------------------------|


  D/B                     D/A
|-----------------------------------------------------|
|-----------------------------------------------------|
|-----------------------------------------------------|
|--------0-----4-----------------0-----4--------------|
|--2-----------------2-----0--------------------------|
|--------------------------------------------3b3.5----|
|
|-13s14-----------------------------------------------|
|-------15----15-------15----------15-----------------|
|----------14----16-14----------14----16-14-----------|
|-------------------------15h16-------------15h====16-|
|-----------------------------------------------------|
|-----------------------------------------------------|


  D                 D/C
|----------------------------------------|
|----------------------------------------|
|----------------------------------------|
|-----------4-----------0-----4----------|
|-----5--------5-----3--------------3----|
|--0-------------------------------------|
|
|----------14-------17----14----------14-|
|----15-------15----13-13----13-13-------|
|-------14-------14----------------14----|
|-12-------------------------------------|
|----------------------------------------|
|----------------------------------------|


  D/B                    D/A
|-------------------------------------------------*|
|-------------------------------------------------*|
|-------------------------------------------------*|
|-----0------4---------------0-----4--------------*|
|--2----------------2-----0-----------------------*|
|----------------------------------------3b3.5----*|
|
|-17----14-(14)-------14-17-----------------------*|
|-12-12---------12----------15----15--------------*|
|------------------14----14----14----14-----------*|
|---------------------------------------15s====16-*|
|-------------------------------------------------*|
|-------------------------------------------------*|
            
Submit corrections

↑ Back to top | Tablatures and chords for acoustic guitar and electric guitar, ukulele, drums are parodies/interpretations of the original songs. You may use it for private study, scholarship, research or language learning purposes only