» » »

Motley Crue - Live Wire Bass

Artists:  A B C D E F G H I J K L M N O P Q R S T U V W X Y Z # 

Live Wire Bass

(ver. 3) Click to play this song!
Motley Crue
 Rating:
4/5 (4 votes)


 Live Wire lessons Tabs too difficult? Try these video lessons and learn fast
 
                Album:Too Fast for Love
Bassist:Nikki Sixx

This is an awesome song...somebody should tab it correctly...I think I will.

Key:
x = times a number
* = let it ring

Intro
G:-----|-----------------------|-----|-----------------------|-----|
D:-----|-----------------------|-----|-----------------------|-----|
A:11-33|1-------1-------1------|11-33|1-------1-------1------|11-33|
E:-----|--33333---33333---33333|-----|--33333---33333---33333|-----|

Verse
G:-------------------------------|-------------------------------|
D:-------------------------------|-------------------------------|
A:1-------1-------1-------1-----3|1-------1-------1-------1-----3|
E:--33333---33333---33333---3-1--|--33333---33333---33333---3-1--|

G:-------------------------------|
D:-------------------------------|
A:1-------1-------1-------111-333|
E:--33333---33333---33333--------|

Pre-Chorus
G:---3-1----|---5-3----|-|
D:1*-----3-1|3*-----5-3|5|
A:----------|----------|-|
E:----------|----------|-|

Chorus
G:-------------------|-------------------|
D:----------1x16-3x16|----------1x16-3x16|
A:-------------------|-------------------|
E:3x16-1x16----------|3x16-1x16----------|

Next part (kind of like intro)
G:-----|--------------------|-----------------------|-----|-----------------------|-----|
D:-----|--------------------|-----------------------|-----|-----------------------|-----|
A:11-33|--------------------|1-------1-------1------|11-33|1-------1-------1------|11-33|
E:-----|3-3-3-3-3-3-33333333|--33333---33333---33333|-----|--33333---33333---33333|-----|

Verse

Chorus

Bridge
G:---------------------------------------|
D:------------------------1-1-1-1-3-3-3-3|
A:--------1------------------------------|
E:3-3-3-3---3-1-1-1-1-5-1----------------|

G:---------------------------------------------------------------|
D:--------------------------------1-1-1-1-1-1-1-1-3-3-3-3-3-3-3-3|<--
A:---------------------------------------------------------------|----x2
E:3-3-3-3-3-3-3-3-1-1-1-1-1-1-1-1--------------------------------|<--/

Chorus until little breaks

After drum parts
G:-----------------------|----|
D:-----------------------|----|
A:1-------1-------1------|11-3|
E:--33333---33333---33333|----|

End
G:----------------------------------------|
D:----------------------------------------|
A:1-------1-------1-------1-----1-3-1-----|
E:--33333---33333---33333---3-1-------1-33|

That's it. This tab is the most accurate out there if not completely correct. I think 
I may have blended my style and Nikki's so it should still be fine. It's already in order. 
            
Submit corrections



        Live Wire lessons Hard to play? Try these video lessons and learn fast Live Wire lessons
        
↑ Back to top | Tablatures and chords for acoustic guitar and electric guitar, ukulele, drums are parodies/interpretations of the original songs. You may use it for private study, scholarship, research or language learning purposes only