Home » M » Motley Crue »

Motley Crue - Dr Feelgood Tabs

Artists:  A B C D E F G H I J K L M N O P Q R S T U V W X Y Z # 

Dr Feelgood Tabs

(ver. 1) Click to play this song!
Motley Crue
Tuning: D A D G B e


Intro

         |--PM--|    PM                   |--Pm--|    Pm         
e|--------------------------------|--------------------------------|
B|----------------<-------<-------|----------------<-------<-------|
G|--------------------------------|--------------------------------|
D|0--00---0---0---0---0---0----0--|0--00---0---0---0---0---0----0--|
A|0--00---0---0---0---0---0----0--|0--00---0---0---0---0---0----0--|
D|0--00---0---0---0---0---0----0--|0--00---0---0---0---0---0----0--|

         |--PM--|    PM                   |--Pm--|    Pm         
e|--------------------------------|--------------------------------|
B|----------------<-------<-------|----------------<-------<-------|
G|--------------------------------|--------------------------------|
D|0--00---0---0---0---0---0----0--|0--00---0---0---0---0---0----0--|
A|0--00---0---0---0---0---0----0--|0--00---0---0---0---0---0----0--|
D|0--00---0---0---0---0---0----0--|0--00---0---0---0---0---0----0--|
                                                      (Play under lead part)

      |----PM----|                     |----Pm----|             
e|--------------------------------|--------------------------------|
B|--------------------------------|--------------------------------|
G|--------------------5---4-------|--------------------5---5~~~~~~~|
D|0-------------------5---5-------|0-------------------4---4~~~~~~~|
A|0---0-2-3-4-3-2-0---------------|0---0-2-3-4-3-2-0---5---5~~~~~~~|
D|0---0-2-3-4-3-2-0---------------|0---0-2-3-4-3-2-0---------------|

      |----PM----|                     |----Pm----|             
e|--------------------------------|--------------------------------|
B|--------------------------------|--------------------------------|
G|--------------------5---4-------|--------------------5---5~~~~~~~|
D|0-------------------5---5-------|0-------------------4---4~~~~~~~|
A|0---0-2-3-4-3-2-0---------------|0---0-2-3-4-3-2-0---5---5~~~~~~~|
D|0---0-2-3-4-3-2-0---------------|0---0-2-3-4-3-2-0---------------|


Verse I

e|--------------------------------|--------------------------------|
B|--------------------------------|--------------------------------|
G|--------------------------------|--------------------------------|
D|5----3--5\----------------------|5----3--5-----0-0---------------|
A|5----3--5\----------------------|5----3--5-----0-0---------------|
D|5----3--5\----------------------|5----3--5-----0-0---------------|

e|--------------------------------|--------------------------------|
B|--------------------------------|--------------------------------|
G|--------------------------------|--------------------------------|
D|5----3--5-----------------------|5----3--5-----0-0---------------|
A|5----3--5-----------------------|5----3--5-----0-0---------------|
D|5----3--5-----------------------|5----3--5-----0-0---------------|

             |--------Pm-------|                      |----Pm---|
e|--------------------------------|--------------------------------|
B|--------------------------------|--------------------------------|
G|--------------------------------|--------------------------------|
D|5----3--5---5---5---5---5---5--x|5----3--5-----0-0---0---0---0---|
A|5----3--5---5---5---5---5---5--x|5----3--5-----0-0---0---0---0---|
D|5----3--5---5---5---5---5---5--x|5----3--5-----0-0---0---0---0---|

             |--------Pm-------|                      |----Pm---|
e|--------------------------------|--------------------------------|
B|--------------------------------|--------------------------------|
G|--------------------------------|--------------------------------|
D|5----3--5---5---5---5---5---5--x|5----3--5-----0-0---0---0---0--0|
A|5----3--5---5---5---5---5---5--x|5----3--5-----0-0---0---0---0--0|
D|5----3--5---5---5---5---5---5--x|5----3--5-----0-0---0---0---0--0|


Chorus I

      |----PM----|                     |----Pm----|             
e|--------------------------------|--------------------------------|
B|--------------------------------|--------------------------------|
G|--------------------5---4-------|--------------------5---5~~~~~~~|
D|0-------------------5---5-------|0-------------------4---4~~~~~~~|
A|0---0-2-3-4-3-2-0---------------|0---0-2-3-4-3-2-0---5---5~~~~~~~|
D|0---0-2-3-4-3-2-0---------------|0---0-2-3-4-3-2-0---------------|

      |----PM----|                     |----Pm----|             
e|--------------------------------|--------------------------------|
B|--------------------------------|--------------------------------|
G|--------------------5---4-------|--------------------5---5~~~~~~~|
D|0-------------------5---5-------|0-------------------4---4~~~~~~~|
A|0---0-2-3-4-3-2-0---------------|0---0-2-3-4-3-2-0---5---5~~~~~~~|
D|0---0-2-3-4-3-2-0---------------|0---0-2-3-4-3-2-0---------------|


Verse II

e|--------------------------------|--------------------------------|
B|--------------------------------|--------------------------------|
G|--------------------------------|--------------------------------|
D|5----3--5\----------------------|5----3--5-----0-0---------------|
A|5----3--5\----------------------|5----3--5-----0-0---------------|
D|5----3--5\----------------------|5----3--5-----0-0---------------|

e|--------------------------------|--------------------------------|
B|--------------------------------|--------------------------------|
G|--------------------------------|--------------------------------|
D|5----3--5-----------------------|5----3--5-----0-0---------------|
A|5----3--5-----------------------|5----3--5-----0-0---------------|
D|5----3--5-----------------------|5----3--5-----0-0---------------|

             |--------Pm-------|                      |----Pm---|
e|--------------------------------|--------------------------------|
B|--------------------------------|--------------------------------|
G|--------------------------------|--------------------------------|
D|5----3--5---5---5---5---5---5--x|5----3--5-----0-0---0---0---0---|
A|5----3--5---5---5---5---5---5--x|5----3--5-----0-0---0---0---0---|
D|5----3--5---5---5---5---5---5--x|5----3--5-----0-0---0---0---0---|

             |--------Pm-------|                      |----Pm---|
e|--------------------------------|--------------------------------|
B|--------------------------------|--------------------------------|
G|--------------------------------|--------------------------------|
D|5----3--5---5---5---5---5---5--x|5----3--5-----0-0---0---0---0--0|
A|5----3--5---5---5---5---5---5--x|5----3--5-----0-0---0---0---0--0|
D|5----3--5---5---5---5---5---5--x|5----3--5-----0-0---0---0---0--0|


Chorus II

      |----PM----|                     |----Pm----|             
e|--------------------------------|--------------------------------|
B|--------------------------------|--------------------------------|
G|--------------------5---4-------|--------------------5---5~~~~~~~|
D|0-------------------5---5-------|0-------------------4---4~~~~~~~|
A|0---0-2-3-4-3-2-0---------------|0---0-2-3-4-3-2-0---5---5~~~~~~~|
D|0---0-2-3-4-3-2-0---------------|0---0-2-3-4-3-2-0---------------|

      |----PM----|                     |----Pm----|             
e|--------------------------------|--------------------------------|
B|--------------------------------|--------------------------------|
G|--------------------5---4-------|--------------------5---5~~~~~~~|
D|0-------------------5---5-------|0-------------------4---4~~~~~~~|
A|0---0-2-3-4-3-2-0---------------|0---0-2-3-4-3-2-0---5---5~~~~~~~|
D|0---0-2-3-4-3-2-0---------------|0---0-2-3-4-3-2-0---------------|


Chorus II B

e|--------------------------------|--------------------------------|
B|<-------<---------------<-------|<---------------<-------<-------|
G|--------------------------------|--------------------------------|
D|3-------3-------5-------5-----5-|0--00-----------0-------0-------|
A|3----3--3-------5----5--5-----5-|0--00---0---0---0-------0----0--|
D|3----3--3----3-/5----5--5-----5-|0--00---0---0---0---0---0----0--|

e|--------------------------------|--------------------------------|
B|<-------<---------------<-------|<---------------<-------<-------|
G|--------------------------------|--------------------------------|
D|3-------3-------5-------5-----5-|0--00-----------0-------0-------|
A|3----3--3-------5----5--5-----5-|0--00---0---0---0-------0----0--|
D|3----3--3----3-/5----5--5-----5-|0--00---0---0---0---0---0----0--|

e|--------------------------------|--------------------------------|
B|<-------<---------------<-------|<---------------<-------<-------|
G|--------------------------------|--------------------------------|
D|3-------3-------5-------5-----5-|0--00-----------0-------0-------|
A|3----3--3-------5----5--5-----5-|0--00---0---0---0-------0----0--|
D|3----3--3----3-/5----5--5-----5-|0--00---0---0---0---0---0----0--|

e|--------------------------------|--------------------------------|
B|<-------<---------------<-------|<---<---------------------------|
G|--------------------------------|--------------------------------|
D|3---3---3-------5-------5-----55|7---7---------------------------|
A|3---3---3-------5---5---5-----55|7---7---------------------------|
D|3---3---3---3/5-5---5---5-----55|7---7---------------------------|

Bridge Solo

      |----PM----|                     |----Pm----|             
e|--------------------------------|--------------------------------|
B|--------------------------------|--------------------------------|
G|--------------------5---4-------|--------------------5---5~~~~~~~|
D|0-------------------5---5-------|0-------------------4---4~~~~~~~|
A|0---0-2-3-4-3-2-0---------------|0---0-2-3-4-3-2-0---5---5~~~~~~~|
D|0---0-2-3-4-3-2-0---------------|0---0-2-3-4-3-2-0---------------|

      |----PM----|                     |----Pm----|             
e|--------------------------------|--------------------------------|
B|--------------------------------|--------------------------------|
G|--------------------5---4-------|--------------------5---5~~~~~~~|
D|0-------------------5---5-------|0-------------------4---4~~~~~~~|
A|0---0-2-3-4-3-2-0---------------|0---0-2-3-4-3-2-0---5---5~~~~~~~|
D|0---0-2-3-4-3-2-0---------------|0---0-2-3-4-3-2-0---------------|


Verse III

e|--------------------------------|--------------------------------|
B|--------------------------------|--------------------------------|
G|--------------------------------|--------------------------------|
D|5----3--5\----------------------|5----3--5-----0-0---------------|
A|5----3--5\----------------------|5----3--5-----0-0---------------|
D|5----3--5\----------------------|5----3--5-----0-0---------------|

e|--------------------------------|--------------------------------|
B|--------------------------------|--------------------------------|
G|--------------------------------|--------------------------------|
D|5----3--5-----------------------|5----3--5-----0-0---------------|
A|5----3--5-----------------------|5----3--5-----0-0---------------|
D|5----3--5-----------------------|5----3--5-----0-0---------------|

             |--------Pm-------|                      |----Pm---|
e|--------------------------------|--------------------------------|
B|--------------------------------|--------------------------------|
G|--------------------------------|--------------------------------|
D|5----3--5---5---5---5---5---5--x|5----3--5-----0-0---0---0---0---|
A|5----3--5---5---5---5---5---5--x|5----3--5-----0-0---0---0---0---|
D|5----3--5---5---5---5---5---5--x|5----3--5-----0-0---0---0---0---|

             |--------Pm-------|                      |----Pm---|
e|--------------------------------|--------------------------------|
B|--------------------------------|--------------------------------|
G|--------------------------------|--------------------------------|
D|5----3--5---5---5---5---5---5--x|5----3--5-----0-0---0---0---0--0|
A|5----3--5---5---5---5---5---5--x|5----3--5-----0-0---0---0---0--0|
D|5----3--5---5---5---5---5---5--x|5----3--5-----0-0---0---0---0--0|


Chorus III

      |----PM----|                     |----Pm----|             
e|--------------------------------|--------------------------------|
B|--------------------------------|--------------------------------|
G|--------------------5---4-------|--------------------5---5~~~~~~~|
D|0-------------------5---5-------|0-------------------4---4~~~~~~~|
A|0---0-2-3-4-3-2-0---------------|0---0-2-3-4-3-2-0---5---5~~~~~~~|
D|0---0-2-3-4-3-2-0---------------|0---0-2-3-4-3-2-0---------------|

      |----PM----|                     |----Pm----|             
e|--------------------------------|--------------------------------|
B|--------------------------------|--------------------------------|
G|--------------------5---4-------|--------------------5---5~~~~~~~|
D|0-------------------5---5-------|0-------------------4---4~~~~~~~|
A|0---0-2-3-4-3-2-0---------------|0---0-2-3-4-3-2-0---5---5~~~~~~~|
D|0---0-2-3-4-3-2-0---------------|0---0-2-3-4-3-2-0---------------|

Chorus III B

e|--------------------------------|--------------------------------|
B|<-------<---------------<-------|<---------------<-------<-------|
G|--------------------------------|--------------------------------|
D|3-------3-------5-------5-----5-|0--00-----------0-------0-------|
A|3----3--3-------5----5--5-----5-|0--00---0---0---0-------0----0--|
D|3----3--3----3-/5----5--5-----5-|0--00---0---0---0---0---0----0--|

e|--------------------------------|--------------------------------|
B|<-------<---------------<-------|<---------------<-------<-------|
G|--------------------------------|--------------------------------|
D|3-------3-------5-------5-----5-|0--00-----------0-------0-------|
A|3----3--3-------5----5--5-----5-|0--00---0---0---0-------0----0--|
D|3----3--3----3-/5----5--5-----5-|0--00---0---0---0---0---0----0--|

e|--------------------------------|--------------------------------|
B|<-------<---------------<-------|<---------------<-------<-------|
G|--------------------------------|--------------------------------|
D|3-------3-------5-------5-----5-|0--00-----------0-------0-------|
A|3----3--3-------5----5--5-----5-|0--00---0---0---0-------0----0--|
D|3----3--3----3-/5----5--5-----5-|0--00---0---0---0---0---0----0--|

e|--------------------------------|--------------------------------|
B|<-------<---------------<-------|<---<---------------------------|
G|--------------------------------|--------------------------------|
D|3---3---3-------5-------5-----55|7---7---------------------------|
A|3---3---3-------5---5---5-----55|7---7---------------------------|
D|3---3---3---3/5-5---5---5-----55|7---7---------------------------|


Bridge A

         |--PM--|    PM                   |--Pm--|    Pm         
e|--------------------------------|--------------------------------|
B|----------------<-------<-------|----------------<-------<-------|
G|--------------------------------|--------------------------------|
D|0--00---0---0---0---0---0----0--|0--00---0---0---0---0---0----0--|
A|0--00---0---0---0---0---0----0--|0--00---0---0---0---0---0----0--|
D|0--00---0---0---0---0---0----0--|0--00---0---0---0---0---0----0--|

         |--PM--|    PM                   |--Pm--|    Pm         
e|--------------------------------|--------------------------------|
B|----------------<-------<-------|----------------<-------<-------|
G|--------------------------------|--------------------------------|
D|0--00---0---0---0---0---0----0--|0--00---0---0---0---0---0----0--|
A|0--00---0---0---0---0---0----0--|0--00---0---0---0---0---0----0--|
D|0--00---0---0---0---0---0----0--|0--00---0---0---0---0---0----0--|

         |--PM--|    PM                   |--Pm--|    Pm         
e|--------------------------------|--------------------------------|
B|----------------<-------<-------|----------------<-------<-------|
G|--------------------------------|--------------------------------|
D|0--00---0---0---0---0---0----0--|0--00---0---0---0---0---0----0--|
A|0--00---0---0---0---0---0----0--|0--00---0---0---0---0---0----0--|
D|0--00---0---0---0---0---0----0--|0--00---0---0---0---0---0----0--|

         |--PM--|    PM                   |--Pm--|    Pm         
e|--------------------------------|----------------<---------------|
B|----------------<-------<-------|----------------3---------------|
G|--------------------------------|----------------2---------------|
D|0--00---0---0---0---0---0----0--|0--00---0---0---0---------------|
A|0--00---0---0---0---0---0----0--|0--00---0---0---0---------------|
D|0--00---0---0---0---0---0----0--|0--00---0---0---0---------------|


Solo

e|--------------------------------|--------------------------------|
B|<-------<---------------<-------|<---------------<-------<-------|
G|--------------------------------|--------------------------------|
D|3-------3-------5-------5-----5-|0--00-----------0-------0-------|
A|3----3--3-------5----5--5-----5-|0--00---0---0---0-------0----0--|
D|3----3--3----3-/5----5--5-----5-|0--00---0---0---0---0---0----0--|

e|--------------------------------|--------------------------------|
B|<-------<---------------<-------|<---------------<-------<-------|
G|--------------------------------|--------------------------------|
D|3-------3-------5-------5-----5-|0--00-----------0-------0-------|
A|3----3--3-------5----5--5-----5-|0--00---0---0---0-------0----0--|
D|3----3--3----3-/5----5--5-----5-|0--00---0---0---0---0---0----0--|

e|--------------------------------|--------------------------------|
B|<-------<---------------<-------|<---------------<-------<-------|
G|--------------------------------|--------------------------------|
D|3-------3-------5-------5-----5-|0--00-----------0-------0-------|
A|3----3--3-------5----5--5-----5-|0--00---0---0---0-------0----0--|
D|3----3--3----3-/5----5--5-----5-|0--00---0---0---0---0---0----0--|

e|--------------------------------|--------------------------------|
B|<-------<---------------<-------|<---<---------------------------|
G|--------------------------------|--------------------------------|
D|3---3---3-------5-------5-----55|7---7---------------------------|
A|3---3---3-------5---5---5-----55|7---7---------------------------|
D|3---3---3---3/5-5---5---5-----55|7---7---------------------------|


Bridge B

      |-----PM-----|                   |-----Pm-----|             
e|--------------------------------|--------------------------------|
B|--------------------------------|--------------------------------|
G|--------------------5---4-------|--------------------5---5~~~~~~~|
D|--------------------5---5-------|0-------------------4---4~~~~~~~|
A|0-------------------------------|0-------------------5---5~~~~~~~|
D|0---0-2-3-4-3-2-0---------------|0---0-2-3-4-3-2-0---------------|

      |-----PM-----|                   |-----Pm-----|             
e|--------------------------------|--------------------------------|
B|--------------------------------|--------------------------------|
G|--------------------5---4-------|--------------------5---5~~~~~~~|
D|--------------------5---5-------|--------------------4---4~~~~~~~|
A|0-------------------------------|0-------------------5---5~~~~~~~|
D|0---0-2-3-4-3-2-0---------------|0---0-2-3-4-3-2-0---------------|
      |-----PM-----|                   |-----Pm-----|             
e|--------------------------------|--------------------------------|
B|--------------------------------|--------------------------------|
G|--------------------5---4-------|--------------------5---5~~~~~~~|
D|--------------------5---5-------|0-------------------4---4~~~~~~~|
A|0-------------------------------|0-------------------5---5~~~~~~~|
D|0---0-2-3-4-3-2-0---------------|0---0-2-3-4-3-2-0---------------|

      |-----PM-----|                   |-----Pm-----|             
e|--------------------------------|--------------------------------|
B|--------------------------------|--------------------------------|
G|--------------------5---4-------|--------------------5---5~~~~~~~|
D|--------------------5---5-------|--------------------4---4~~~~~~~|
A|0-------------------------------|0-------------------5---5~~~~~~~|
D|0---0-2-3-4-3-2-0---------------|0---0-2-3-4-3-2-0---------------|


Chorus IV B

e|--------------------------------|--------------------------------|
B|<-------<---------------<-------|<---------------<-------<-------|
G|--------------------------------|--------------------------------|
D|3-------3-------5-------5-----5-|0--00-----------0-------0-------|
A|3----3--3-------5----5--5-----5-|0--00---0---0---0-------0----0--|
D|3----3--3----3-/5----5--5-----5-|0--00---0---0---0---0---0----0--|

e|--------------------------------|--------------------------------|
B|<-------<---------------<-------|<---------------<-------<-------|
G|--------------------------------|--------------------------------|
D|3-------3-------5-------5-----5-|0--00-----------0-------0-------|
A|3----3--3-------5----5--5-----5-|0--00---0---0---0-------0----0--|
D|3----3--3----3-/5----5--5-----5-|0--00---0---0---0---0---0----0--|

e|--------------------------------|--------------------------------|
B|<-------<---------------<-------|<---------------<-------<-------|
G|--------------------------------|--------------------------------|
D|3-------3-------5-------5-----5-|0--00-----------0-------0-------|
A|3----3--3-------5----5--5-----5-|0--00---0---0---0-------0----0--|
D|3----3--3----3-/5----5--5-----5-|0--00---0---0---0---0---0----0--|

e|--------------------------------|--------------------------------|
B|<-------<---------------<-------|<---<---------------------------|
G|--------------------------------|--------------------------------|
D|3---3---3-------5-------5-----55|7---7---------------------------|
A|3---3---3-------5---5---5-----55|7---7---------------------------|
D|3---3---3---3/5-5---5---5-----55|7---7---------------------------|


Outro

e|--------------------------------|--------------------------------|
B|--------------------------------|--------------------------------|
G|--------------------5---4-------|--------------------5---5~~~~~~~|
D|0---0-2-3-4-3-2-0---5---5-------|0---0-2-3-4-3-2-0---4---4~~~~~~~|
A|0---0-2-3-4-3-2-0---------------|0---0-2-3-4-3-2-0---5---5~~~~~~~|
D|0---0-2-3-4-3-2-0---------------|0---0-2-3-4-3-2-0---------------|

e|--------------------------------|--------------------------------|
B|--------------------------------|--------------------------------|
G|--------------------5---4-------|--------------------5---5~~~~~~~|
D|0---0-2-3-4-3-2-0---5---5-------|0---0-2-3-4-3-2-0---4---4~~~~~~~|
A|0---0-2-3-4-3-2-0---------------|0---0-2-3-4-3-2-0---5---5~~~~~~~|
D|0---0-2-3-4-3-2-0---------------|0---0-2-3-4-3-2-0---------------|

e|--------------------------------|--------------------------------|
B|--------------------------------|--------------------------------|
G|--------------------5---4-------|--------------------5---5~~~~~~~|
D|0---0-2-3-4-3-2-0---5---5-------|0---0-2-3-4-3-2-0---4---4~~~~~~~|
A|0---0-2-3-4-3-2-0---------------|0---0-2-3-4-3-2-0---5---5~~~~~~~|
D|0---0-2-3-4-3-2-0---------------|0---0-2-3-4-3-2-0---------------|

e|--------------------------------|--------------------------------|
B|--------------------------------|--------------------------------|
G|--------------------5---4-------|--------------------5---5~~~~~~~|
D|0---0-2-3-4-3-2-0---5---5-------|0---0-2-3-4-3-2-0---4---4~~~~~~~|
A|0---0-2-3-4-3-2-0---------------|0---0-2-3-4-3-2-0---5---5~~~~~~~|
D|0---0-2-3-4-3-2-0---------------|0---0-2-3-4-3-2-0---------------|
                                                              (Fade out)

            
Submit corrections

↑ Back to top | Tablatures and chords for acoustic guitar and electric guitar, ukulele, drums are parodies/interpretations of the original songs. You may use it for private study, scholarship, research or language learning purposes only