Home » M » Motley Crue »

Motley Crue - Dont Go Away Mad Just Go Away Tabs

Artists:  A B C D E F G H I J K L M N O P Q R S T U V W X Y Z # 

Dont Go Away Mad Just Go Away Tabs

(ver. 1) Click to play this song!
Motley Crue
 Rating:
4.3/5 (20 votes)
                INTRO:
 
F |---------------------------------|---------------------------------|
C |---------------------------------|---------------------------------|
G |-5-------------------------------|(5)------------------------------|
D |---------------------------------|-----------------------------0---|
    1   &   2   &   3   &   4   &     1   &   2   &   3   &   4   &
 
F |---------------------------------|---------------------------------|
C |---------------------------------|---------------------------------|
G |---------------------------------|---------------------------------|
D |-0-------------------------------|(0)----------------------0---2---|
    1   &   2   &   3   &   4   &     1   &   2   &   3   &   4   &
 
F |---------------------------------|---------------------------------|
C |---------------------------------|---------------------------------|
G |---------------------------------|---------------------------------|
D |-3-------------------------------|(3)------------------------------|
    1   &   2   &   3   &   4   &     1   &   2   &   3   &   4   &
 
F |---------------------------------|---------------------------------|
C |---------------------------------|---------------------------------|
G |-5---5---5---5-------------------|(5)------------------------------|
D |---------------------------------|---------------------------------|
    1   &   2   &   3   &   4   &     1   &   2   &   3   &   4   &
 
 
PRE—VERSE:
                   a                         a
F |---------------------------------|--------9/11--9-------7-----------|
C |---------------------7---9---7---|--------------------------7---9---|
G |-5-------r---5--7/9--------------|-7--------------------------------|
D |---------------------------------|----------------------------------|
    1   &   2   &   3   &   4   &     1   &   2    &   3   &   4   &
 
                                             a
F |-7-------------------------------|---------------------------------|
C |---------9-----7-9-------7-------|--------7/9----7-9-------7-------|
G |---------------------9-------0---|-5-------------------9-------0---|
D |---------------------------------|---------------------------------|
    1   &   2   &   3   &   4   &     1   &   2   &   3   &   4   &
 
                   a                         a
F |---------------------------------|--------9/11--9-------7-----------|
C |---------------------7---9---7---|--------------------------7---9---|
G |-5-------r---5--7/9--------------|-7--------------------------------|
D |---------------------------------|----------------------------------|
    1   &   2   &   3   &   4   &     1   &   2    &   3   &   4   &
 
 
F |-7-------------------------------|---------------------------------|
C |---------9-----7-9-------7-------|---------------------------------|
G |---------------------9-------0---|-5-------------------------------|
D |---------------------------------|---------------------------------|
    1   &   2   &   3   &   4   &     1   &   2   &   3   &   4   &
 
 
VERSE 1:
 
F |---------------------------------|---------------------------------|
C |---------------------------------|---------------------------------|
G |-5-------r---5-----------r---5---|-7-------r---7-----------r-------|
D |---------------------------------|-----------------------------0---|
    1   &   2   &   3   &   4   &     1   &   2   &   3   &   4   &
 
F |---------------------------------|---------------------------------|
C |---------------------------------|---------------------------------|
G |---------------------------------|-5-------r---5---------------0---|
D |-3-------r---3-----------3---/---|---------------------------------|
    1   &   2   &   3   &   4   &     1   &   2   &   3   &   4   &
 
F |---------------------------------|---------------------------------|
C |---------------------------------|---------------------------------|
G |-5-------r---5---------------0---|-7-------r---7-------------------|
D |---------------------------------|-----------------------------0---|
    1   &   2   &   3   &   4   &     1   &   2   &   3   &   4   &
 
F |---------------------------------|---------------------------------|
C |---------------------------------|---------------------------------|
G |---------------------------------|-5-------r---5---------------0---|
D |-3-------r---3-----------3---/---|---------------------------------|
    1   &   2   &   3   &   4   &     1   &   2   &   3   &   4   &
 
 
VERSE 2:
 
F |---------------------------------|---------------------------------|
C |---------------------------------|---------------------------------|
G |-5-------r---5---------------0---|-7-------r---7-------------------|
D |---------------------------------|-----------------------------0---|
    1   &   2   &   3   &   4   &     1   &   2   &   3   &   4   &
 
F |---------------------------------|---------------------------------|
C |---------------------------------|---------------------------------|
G |---------------------------------|-5-------r---5---------------0---|
D |-3-------r---3-----------3---/---|---------------------------------|
    1   &   2   &   3   &   4   &     1   &   2   &   3   &   4   &
 
                           a
F |---------------------------------|---------------------------------|
C |------------------------7/9--7---|-------------------------9---7---|
G |-5-------r---5-------5-----------|-7-------r---7-------7-----------|
D |---------------------------------|---------------------------------|
    1   &   2   &   3   &   4   &     1   &   2   &   3   &   4   &
 
                       a
F |---------------------------------|---------------------------------|
C |-5-------r---5------7/9--7---9---|---------------------------------|
G |---------------------------------|-5-------r---5---------------0---|
D |---------------------------------|---------------------------------|
    1   &   2   &   3   &   4   &     1   &   2   &   3   &   4   &
 
 
CHORUS 1:
 
F |---------------------------------|---------------------------------|
C |-10------10------10--9-----------|---------------------------------|
G |-------------------------10--10--|(10)-----10------10--9-\-5---5---|
D |---------------------------------|---------------------------------|
    1   &   2   &   3   &   4   &     1   &   2   &   3   &   4   &
 
F |---------------------------------|---------------------------------|
C |---------------------------------|---------------------------------|
G |(5)------5-------5-----------5---|(5)--5---5---5---5---0---0---2---|
D |---------------------5---7-------|---------------------------------|
    1   &   2   &   3   &   4   &     1   &   2   &   3   &   4   &
 
F |---------------------------------|---------------------------------|
C |---------------------------------|---------------------------------|
G |-3-------3-------3---2---0-------|---------------------------------|
D |-----------------------------3---|(3)------3-------3---3---3---/---|
    1   &   2   &   3   &   4   &     1   &   2   &   3   &   4   &
 
 
PRE—VERSE 2:
                   a                         a
F |---------------------------------|--------9/11--9-------7-----------|
C |---------------------7---9---7---|--------------------------7---9---|
G |-5-------r---5--7/9--------------|-7--------------------------------|
D |---------------------------------|----------------------------------|
    1   &   2   &   3   &   4   &     1   &   2    &   3   &   4   &
 
                                             a
F |-7-------------------------------|---------------------------------|
C |---------9-----7-9-------7-------|--------7/9----7-9-------7-------|
G |---------------------9-------0---|-5-------------------9-------0---|
D |---------------------------------|---------------------------------|
    1   &   2   &   3   &   4   &     1   &   2   &   3   &   4   &
 
 
VERSE 3:
 
F |---------------------------------|---------------------------------|
C |---------------------------------|---------------------------------|
G |-5-------r---5-----------5---0---|-7-------r---7-----------7-------|
D |---------------------------------|-----------------------------0---|
    1   &   2   &   3   &   4   &     1   &   2   &   3   &   4   &
 
                   a        a                    a
F |---------------------------------|---------------------------------|
C |-----------------------------7---|------------7/9------7-----------|
G |---------------------5--7/9------|-5-------7---------------9---0---|
D |-3-------r---3--5/7--------------|---------------------------------|
    1   &   2   &   3   &   4   &     1   &   2   &   3   &   4   &
 
F |---------------------------------|---------------------------------|
C |---------------------------------|---------------------------------|
G |-5-------r---5-----------5---/---|-7-------r---7-----------7-------|
D |---------------------------------|-----------------------------0---|
    1   &   2   &   3   &   4   &     1   &   2   &   3   &   4   &
 
                   a
F |---------------------------------|---------------------------------|
C |---------------------------------|-------------12------12--12\-7-9-|
G |---------------------5-/-9---0---|-5-------/-----------------------|
D |-3-------r---3--5/7--------------|---------------------------------|
    1   &   2   &   3   &   4   &     1   &   2   &   3   &   4   &
 
 
CHORUS 2:
 
F |---------------------------------|---------------------------------|
C |-10------10------10--9-----------|---------------------------------|
G |-------------------------10--10--|(10)-----10------10--9-\-5---5---|
D |---------------------------------|---------------------------------|
    1   &   2   &   3   &   4   &     1   &   2   &   3   &   4   &
 
F |---------------------------------|---------------------------------|
C |---------------------------------|---------------------------------|
G |(5)--5---5---5---5-----------5---|(5)--5---5---5---5---0---0---2---|
D |---------------------5---7-------|---------------------------------|
    1   &   2   &   3   &   4   &     1   &   2   &   3   &   4   &
 
F |---------------------------------|---------------------------------|
C |---------------------------------|---------------------------------|
G |-3-------3-------3---2---0-------|---------------------0---3---5---|
D |-----------------------------3---|(3)------3-------3---------------|
    1   &   2   &   3   &   4   &     1   &   2   &   3   &   4   &
 
F |---------------------------------|---------------------------------|
C |---------------------------------|---------------------------------|
G |(5)--5---5---5---5---5---5---5---|-5---5---5---5---5---0---0---2---|
D |---------------------------------|---------------------------------|
    1   &   2   &   3   &   4   &     1   &   2   &   3   &   4   &
 
 
CHORUS 3:
 
F |---------------------------------|---------------------------------|
C |---------------------------------|---------------------------------|
G |-3-------3-------3---2---0-------|---------------------0---3---5---|
D |-----------------------------3---|(3)------3-------3---------------|
    1   &   2   &   3   &   4   &     1   &   2   &   3   &   4   &
 
F |---------------------------------|---------------------------------|
C |---------------------------------|---------------------------------|
G |(5)------5-------5-------5---5---|(5)------5-------5---0---0---2---|
D |---------------------------------|---------------------------------|
    1   &   2   &   3   &   4   &     1   &   2   &   3   &   4   &
 
F |---------------------------------|---------------------------------|
C |---------------------------------|---------------------------------|
G |-3-------3-------3---2---0-------|-------------------------1---2---|
D |-----------------------------3---|(3)--3---3-------3---3-----------|
    1   &   2   &   3   &   4   &     1   &   2   &   3   &   4   &
 
F |---------------------------------|---------------------------------|
C |---------------------------------|---------------------------------|
G |-0---0---0---0---0---0---0---0---|-12--12--12--12--12--12\-7---0---|
D |---------------------------------|---------------------------------|
    1   &   2   &   3   &   4   &     1   &   2   &   3   &   4   &
 
 
NEW CHORUS 1:
 
F |---------------------------------|---------------------------------|
C |---------------------------------|---------------------------------|
G |-5-------5---5---5---5---5---7---|-7-------7---7---7---7---7---0---|
D |---------------------------------|---------------------------------|
    1   &   2   &   3   &   4   &     1   &   2   &   3   &   4   &
 
F |---------------------------------|---------------------------------|
C |---------------------------------|---------------------------------|
G |-10------10--10--10--10--10--0---|-5-------5---5---5---5-----------|
D |---------------------------------|-------------------------5---7---|
    1   &   2   &   3   &   4   &     1   &   2   &   3   &   4   &
 
F |---------------------------------|---------------------------------|
C |---------------------------------|---------------------------------|
G |-5-------5---5---5---5---5---5---|-7-------7---7---7---7---7---0---|
D |---------------------------------|---------------------------------|
    1   &   2   &   3   &   4   &     1   &   2   &   3   &   4   &
 
F |---------------------------------|---------------------------------|
C |---------------------------------|---------------------------------|
G |-10------10--10--10--10--10--0---|-5-------5---5---5---5-----------|
D |---------------------------------|-------------------------5---7---|
    1   &   2   &   3   &   4   &     1   &   2   &   3   &   4   &
 
 
GUITAR SOLO (x4):
 
F |---------------------------------|---------------------------------|
C |---------------------------------|---------------------------------|
G |-5-------5---5---5---5---5---5---|-7-------7---7---7---7---7---0---|
D |---------------------------------|---------------------------------|
    1   &   2   &   3   &   4   &     1   &   2   &   3   &   4   &
                                     --------------------------------- ---------------------------------
                                    /1,2,3                            /4
F |---------------------------------|---------------------------------|---------------------------------|
C |---------------------------------|---------------------------------|---------------------------------|
G |-10------10--10--10--10--10--0---|-5-------5---5---5---5-----------|-5-------5---5---5---5---5---5---|
D |---------------------------------|-------------------------5---7---|---------------------------------|
    1   &   2   &   3   &   4   &     1   &   2   &   3   &   4   &     1   &   2   &   3   &   4   &
 
 
BRIDGE:
 
F |---------------------------------|---------------------------------|
C |---------------------------------|---------------------------------|
G |-5---\---r-----------------------|---------------------------------|
D |---------------------------------|-r-------------------------------|
    1   &   2   &   3   &   4   &     1   &   2   &   3   &   4   &
 
F |---------------------------------|---------------------------------|
C |---------------------------------|---------------------------------|
G |---------------------------------|---------------------------------|
D |-r-------------------------------|-r-----------------------1---/---|
    1   &   2   &   3   &   4   &     1   &   2   &   3   &   4   &
 
F |---------------------------------|---------------------------------|
C |---------------------------------|-------------12--------------12--|
G |-5-----------4---------------/---|-10------/-----------------------|
D |---------------------------------|---------------------------------|
    1   &   2   &   3   &   4   &     1   &   2   &   3   &   4   &
 
   a
F |---------------------------------|---------------------------------|
C |11h12--------11--------------\---|-5--------\--0-------------------|
G |---------------------------------|---------------------------------|
D |---------------------------------|---------------------------------|
    1   &   2   &   3   &   4   &     1   &   2   &   3   &   4   &
 
F |---------------------------------|---------------------------------|---------------------------------|
C |---------------------------------|---------------------------------|---------------------------------|
G |-3---3---3---2---2---2---0-------|---------------------------------|---------------------------------|
D |---------------------------------|-3-------------------------------|(3)------------------------------|
    1   &   2   &   3   &   4   &     1   &   2   &   3   &   4   &     1   &   2   &   3   &   4   &
 
 
BREAKDOWN 2:
                                                 (Rest x6)
F |---------------------------------||---------------------------------||---------------------------------|
C |---------------------------------||---------------------------------||-12--12--12--12--12--12----------|
G |-5-------\---\---r---------------||---------------------------------||-------------------------14--0---|
D |---------------------------------||-r-------------------------------||---------------------------------|
    1   &   2   &   3   &   4   &      1   &   2   &   3   &   4   &      1   &   2   &   3   &   4   &
 
 
NEW CHORUS 2:
 
F |---------------------------------|---------------------------------|
C |---------------------------------|---------------------------------|
G |-5-------5---5---5---5---5---7---|-7-------7---7---7---7---7---0---|
D |---------------------------------|---------------------------------|
    1   &   2   &   3   &   4   &     1   &   2   &   3   &   4   &
 
F |---------------------------------|---------------------------------|
C |---------------------------------|---------------------------------|
G |-10------10--10--10--10--10--0---|-5-------5---5---5---5---5-------|
D |---------------------------------|-----------------------------5h7-|
    1   &   2   &   3   &   4   &     1   &   2   &   3   &   4   &
 
F |---------------------------------|---------------------------------|
C |---------------------------------|---------------------------------|
G |-5-------5---5---5---5---5---5---|-7-------7---7---7---7---7---0---|
D |---------------------------------|---------------------------------|
    1   &   2   &   3   &   4   &     1   &   2   &   3   &   4   &
 
F |---------------------------------|---------------------------------|
C |---------------------------------|---------------------------------|
G |-10------10--10--10--10--10--0---|-5-------5---5---5---5---5-------|
D |---------------------------------|-----------------------------5h7-|
    1   &   2   &   3   &   4   &     1   &   2   &   3   &   4   &
 
 
NEW CHORUS 3:
 
F |---------------------------------|---------------------------------|
C |---------------------------------|---------------------------------|
G |-5-------5---5---5---5---5---5---|-7-------7---7---7---7---7---0---|
D |---------------------------------|---------------------------------|
    1   &   2   &   3   &   4   &     1   &   2   &   3   &   4   &
 
F |---------------------------------|---------------------------------|
C |---------------------------------|---------------------------------|
G |-10------10--10--10--10--10--0---|-5-------5---5---5---5---5-------|
D |---------------------------------|-----------------------------5h7-|
    1   &   2   &   3   &   4   &     1   &   2   &   3   &   4   &
 
F |---------------------------------|---------------------------------|
C |---------------------------------|---------------------------------|
G |-5-------5---5---5---5---5---5---|-7-------7---7---7---7---7---0---|
D |---------------------------------|---------------------------------|
    1   &   2   &   3   &   4   &     1   &   2   &   3   &   4   &
 
F |---------------------------------|---------------------------------|
C |---------------------------------|---------------------------------|
G |-10------10--10--10--10--10--0---|-5-------5---5---5---0---0---0---|
D |---------------------------------|---------------------------------|
    1   &   2   &   3   &   4   &     1   &   2   &   3   &   4   &
 
 
OUTRO:
 
F |---------------------------------|---------------------------------|
C |---------------------------------|---------------------------------|
G |-5-------5---5---5---5---5---0---|-7-------7---7---7---7---7---0---|
D |---------------------------------|---------------------------------|
    1   &   2   &   3   &   4   &     1   &   2   &   3   &   4   &
 
F |---------------------------------|---------------------------------|
C |---------------------------------|---------------------------------|
G |-10------10--10--10--10--10--0---|-5-------5---5---5---0---5---0---|
D |---------------------------------|---------------------------------|
    1   &   2   &   3   &   4   &     1   &   2   &   3   &   4   &
 
F |---------------------------------|---------------------------------|
C |---------------------------------|---------------------------------|
G |-5-------5---5---5---5---5---5---|-7-------7---7---7---7---7---0---|
D |---------------------------------|---------------------------------|
    1   &   2   &   3   &   4   &     1   &   2   &   3   &   4   &
 
   (rit.)          a
F |---------------------------------|---------------------------------|
C |---------------------------------|---------------------------------|
G |-10------------------5---7-------|-5----------------/-/-/-/17------|
D |----------------5/7--------------|---------------------------------|
    1   &   2   &   3   &   4   &     1   &   2   &   3   &   4   &
 
   (off-tempo; refer to song for timing)
F |---------------------------------|---------------------------------|
C |---------------------------------|---------------------------------|
G |(17)-------------------------r---|---------------------------------|
D |---------------------------------|-10------\---\---r---------------|
    1   &   2   &   3   &   4   &     1   &   2   &   3   &   4   &
            
Submit corrections

↑ Back to top | Tablatures and chords for acoustic guitar and electric guitar, ukulele, drums are parodies/interpretations of the original songs. You may use it for private study, scholarship, research or language learning purposes only