Home » M » Motion City Soundtrack »

Motion City Soundtrack - Red Dress Tabs

Artists:  A B C D E F G H I J K L M N O P Q R S T U V W X Y Z # 

Red Dress Tabs

(ver. 2) Click to play this song!
Motion City Soundtrack
I tabbed it for one guitar, cause I cant get all those fill things.
The intro looks strange I know, but give it a shot, if there's one thing
inacurate on this tab, it's that.
Enjoy!

*Drop D*

Intro
E|---------------------------------------------------||
B|---------------------------------------------------||
G|---------------------------------------------------||
D|-8--8--8--8--8--8--8--8---6666-10-10-10------------|| x2
A|-11-11-11-11-11-11-11-11--8888-12-12-12------------||
D|-8--8--8--8--8--8--8--8---6666-8--8--8-------------||

Verse (2nd time don’t play the 6 for “hang’s out front”)
E|-----------------------------------------------||
B|-----------------------------------------------||
G|-----------------------------------------------||
D|-11111111--3333-6666---------------------------|| x4 
A|-11111111--3333-6666---------------------------||
D|-11111111--3333-6666---------------------------||

Pre-chorus
E|-------------------------------------------||
B|-------------------------------------------||
G|-5555--3333--------------------------------||
D|-5555--3333--66666-------------------------||
A|-3333--1111--66666-------------------------||
D|-------------66666-------------------------||

Chorus
E|------------------------------------------------||
B|------------------------------------------------||
G|------------------------------------------------||
D|-66666666-44444444-33333333---------------------|| x4
A|-66666666-44444444-33333333---------------------||
D|-66666666-44444444-33333333---------------------||

Verse 
E|-----------------------------------------------||
B|-----------------------------------------------||
G|-----------------------------------------------||
D|-11111111--3333-6666---------------------------|| x4 
A|-11111111--3333-6666---------------------------||
D|-11111111--3333-6666---------------------------||


Post verse
E|-----------------------------------------||
B|-----------------------------------------||
G|-5555-3/5--66666--13~---------------------||
D|-5555-3/5--66666-------------------------||
A|-3333-1/3--44444-------------------------||
D|-----------------------------------------||

Verse (2nd time don’t play the 6 for “stars and stripes”)
E|-----------------------------------------------||
B|-----------------------------------------------||
G|-----------------------------------------------||
D|-11111111--3333-6666---------------------------|| x8 
A|-11111111--3333-6666---------------------------||
D|-11111111--3333-6666---------------------------||

Pre-chorus
E|-------------------------------------------||
B|-------------------------------------------||
G|-5555--3333--------------------------------||
D|-5555--3333--66666-------------------------||
A|-3333--1111--66666-------------------------||
D|-------------66666-------------------------||

Chorus
E|------------------------------------------------||
B|------------------------------------------------||
G|------------------------------------------------||
D|-66666666-44444444-33333333---------------------|| x4
A|-66666666-44444444-33333333---------------------||
D|-66666666-44444444-33333333---------------------||

Post verse
E|---------------------------------------||
B|-----------------------------------------||
G|-5555-3/5--66666--13~---------------------||
D|-5555-3/5--66666-------------------------||
A|-3333-1/3--44444-------------------------||
D|-----------------------------------------||

Bridge
E|-----------------------------------||
B|-----------------------------------||
G|----------55555555-----------------||
D|-1~---6~--55555555-33333333--------|| x3 
A|-1~---6~--33333333-33333333--------||
D|-1~---6~-----------33333333--------||
Bridge 2
E|---------------------------||
B|---------------------------||
G|--------55-55--------------||
D|-1~/6~--55-55-33-33--------|| x1 
A|-1~/6~--33-33-33-33--------||
D|-1~/6~--------33-33--------||

Verse 
E|-----------------------------------------------||
B|-----------------------------------------------||
G|-----------------------------------------------||
D|-11111111--3333-6666---------------------------|| x4 
A|-11111111--3333-6666---------------------------||
D|-11111111--3333-6666---------------------------||

Post verse
E|-----------------------------------------||
B|-----------------------------------------||
G|-5555-3/5--66666--13~--------------------||
D|-5555-3/5--66666-------------------------||
A|-3333-1/3--44444-------------------------||
D|-----------------------------------------||
 
~shiek
            
Submit corrections

↑ Back to top | Tablatures and chords for acoustic guitar and electric guitar, ukulele, drums are parodies/interpretations of the original songs. You may use it for private study, scholarship, research or language learning purposes only