Home » M » Motion City Soundtrack »

Motion City Soundtrack - L.G. Fuad Tabs

Artists:  A B C D E F G H I J K L M N O P Q R S T U V W X Y Z # 

L.G. Fuad Tabs

(ver. 1) Click to play this song!
Motion City Soundtrack

Standard Tuning

Verse

E|--------------------------------------------------------------------------|
B|--------------------------------------------------------------------------|
G|--------------------------------------------------------------------------|
D|-6666666666666666-66666666-----------6666666666666666---------------------|
A|-4444444433333333-44444444--44444444-4444444433333333---4444444466666666--|
E|----------------------------11112222--------------------1111111144444444--|

Chorus

Guitar 1
E|-----------4--4--4------------------------|
B|--6--6--6---6--6----6--6--6--6p44-6p4-----|
G|---6--6------6--6----6--6------------6----|
D|----6--6--------------6--6----------------|
A|------------------------------------------|
E|------------------------------------------|

Guitar 2
E|------------------------------------------|
B|---------------2--------------------------|
G|-3------5------3-----5--------------------|
D|-4------6------3-----6--------------------|
A|-4------6------1-----6--------------------|
E|-2------4------------4--------------------|

On Last time of Chorus:

Guitar 1
E|----8-8-8-8-8-8---------------------------|
B|---9-9-9-9-9-9----------------------------|
G|------------------------------------------|
D|------------------------------------------|
A|------------------------------------------|
E|------------------------------------------|

Guitar 2 Plays sustained G# Chord through that



After the last chorus skip the last A#m and 
play a steady C#5 until the end
            
Submit corrections

↑ Back to top | Tablatures and chords for acoustic guitar and electric guitar, ukulele, drums are parodies/interpretations of the original songs. You may use it for private study, scholarship, research or language learning purposes only