» » »

Mother Mother - Monkey Tree Tabs

Artists:  A B C D E F G H I J K L M N O P Q R S T U V W X Y Z # 

Monkey Tree Tabs

(ver. 1) Click to play this song!
Mother Mother
 Rating:
4/5 (4 votes)

 Monkey Tree lessons Tabs too difficult? Try these video lessons and learn fast
 
                Intro/Chorus

0:06-0:42
E|--------6--10--------6--10--------6--10--8--6--------|
B|-----6------------6------------6---------------8-----|
G|--7------------7------------7---------------------8--|
D|-----------------------------------------------------|
A|-----------------------------------------------------|
E|-----------------------------------------------------|


E|--8--6---------8--6---------8--6---------8--6--------|
B|--------8------------8------------8------------8-----|
G|-----------8------------8------------8------------8--|
D|-----------------------------------------------------|
A|-----------------------------------------------------|
E|-----------------------------------------------------|


E|--------6--10--------6--10--------6--10--8--6--------|
B|-----8------------8------------8---------------8-----|
G|--7------------7------------7---------------------8--|
D|-----------------------------------------------------|
A|-----------------------------------------------------|
E|-----------------------------------------------------|


E|--8--6---------8--6---------8--6---------8--6--------|
B|--------8------------8------------8------------8-----|0
G|-----------8------------8------------8------------8--|   x3
D|-----------------------------------------------------|
A|-----------------------------------------------------|0
E|-----------------------------------------------------|

Verse (First half bass only)

Tied to the rat race,
A big bird in a small cage.
You're tied with a tightrope,
And you wiggle but it won't let go.

-Then he hits these 4 chords, with a synth effect on his guitar, when playing live.
0:55-1:06
E|------------11----------------11-------|
B|---15-------11-------15-------11-------|
G|---15-------12-------15-------12-------|
D|---15-------13-------17-------13-------|
A|---------------------------------------|
E|---------------------------------------|

1:07-1:32 Repeat Intro/Chorus

Then repeat during the "yeah yeah yeah..."
1:33-1:37
E|--------6--10--|
B|-----6---------|0
G|--7------------|  x7
D|---------------|
A|---------------|0
E|---------------|

Bridge
1:38-1:59
E|---2~----6~----7~----6-4~----2-0~----6-6~----1--|
B|---2~----7~----7~----6-4~----2-0~----7-6~----1--|
G|---3~----8~----8~----6-4~----4-1~----8-8~----2--|
D|---4~----8~----9~----8-6~----4-2~----8-9~----3--|
A|---4~----6~----9~----8-6~----2-2~----6-9~----3--|
E|---2~----------7~----6-4~----2-0~------7~----1--|

Repeat Intro/Chorus
2:00-2:50

Breakdown/Outro
2:51
E|---6----6----3----6---|
B|---6----8----3----8---|0
G|---7----8----3----8---|    x2
D|---8----8----5----8---|
A|---8----6----3----6---|0
E|---6---------3--------|

Run Run away with me.

E|---6--|
B|---6--|
G|---7--|
D|---8--|
A|---8--|
E|---6--|            
Submit corrections


        Monkey Tree lessons Hard to play? Try these video lessons and learn fast Monkey Tree lessons
        
↑ Back to top | Tablatures and chords for acoustic guitar and electric guitar, ukulele, drums are parodies/interpretations of the original songs. You may use it for private study, scholarship, research or language learning purposes only