» » »

Mother Mother - Little Hands Tabs

Artists:  A B C D E F G H I J K L M N O P Q R S T U V W X Y Z # 

Little Hands Tabs

(ver. 1) Click to play this song!
Mother Mother
 Rating:
4.2/5 (5 votes)

 Little Hands lessons Tabs too difficult? Try these video lessons and learn fast
 
                

Standard tuning. Nothing tricky here.

12^ = Harmonic at the 12th fret

Intro
--------------------------------------------|------|
--------------------------------------------|------|
------0------12^------0------------12^------|------|
------0------12^------0------------12^------|------|
--------------------------------------------|------|
--6-------5-------6-------5--5--5------5----|------|

--------------------------------------------|------|
--------------------------------------------|------|
------0------12^------0------------12^------|------|
------0------12^------0------------12^------|------|
--------------------------------------------|------|
--6-------5-------6-------5--5--5-----------|------|

Verses
------------------------------------------------------------------------------|
------------------------------------------------------------------------------|
------0------12^------0-------12^------0-------12^-----0-------------12^------|
------0------12^------0-------12^------0-------12^-----0-------------12^------|
------------------------------------------------------------------------------|
--6-------5-------6-------5--------6-------5-------6-------5--5--5------------|

Bridge
------------------------------------------------------------------------------|
------------------------------------------------------------------------------|
-----0-----0-----0-----0-----0-----0-----0------------------------------------|
-----0-----0-----0-----0-----0-----0-----0------------------------------------|
------------------------------------------------------------------------------|
--3-----2-----3-----2-----3-----2-----3-------1----/6-------------------------|


That's it!
            
Submit corrections


        Little Hands lessons Hard to play? Try these video lessons and learn fast Little Hands lessons
        
↑ Back to top | Tablatures and chords for acoustic guitar and electric guitar, ukulele, drums are parodies/interpretations of the original songs. You may use it for private study, scholarship, research or language learning purposes only