Home » M » Mother Mother »

Mother Mother - Hayloft Tabs

Artists:  A B C D E F G H I J K L M N O P Q R S T U V W X Y Z # 

Hayloft Tabs

(ver. 1) Click to play this song!
Mother Mother
 Rating:
4.4/5 (7 votes)
                [Intro]
e|------------------------------------------------------------------------------|
B|------------------------------------------------------------------------------|
G|------------------------------------------------------------------------------|
D|------7-5-7-5-7-5-7-5--7---7---7---7-6--7---7---7---7---7-6-7-6-7-6-7-6-------|
A|------------------------------------------8---8---8---8-----------------------|
E|-------------------------8---8---8--------------------------------------------|
 
e|----------------5--------------5------------5-7--|-----7--5-------------------|
B|----5-5--5-6-8-----5-5--5-6-8-----6-6--6-8-------|--5--------8----------------|
G|-------------------------------------------------|----------------------------|
D|-------------------------------------------------|----------------------------|
A|-------------------------------------------------|----------------------------|
E|-------------------------------------------------|----------------------------|
 
e|------------------------------------------------------------------------------|
B|------------------------------------------------------------------------------|
G|------------------------------------------------------------------------------|
D|------7-5-7-5-7-5-7-5--7---7---7---7-6--7---7---7---7---7-6-7-6-7-6-7-6-------|
A|------------------------------------------8---8---8---8-----------------------|
E|-------------------------8---8---8--------------------------------------------|
 
e|------------------------------------------------------------------------------|
B|------------------------------------------------------------------------------|
G|------------------------------------------------------------------------------|
D|------7-5-7-5-7-5-7-5--7---7---7---7-6--7---7---7---7---7-6-7-6-7-6-7-6-------|
A|------------------------------------------8---8---8---8-----------------------|
E|-------------------------8---8---8--------------------------------------------|
 
[Chorus]
  [palm mute]
e|------------------------------------------------------------------------------|
B|------------------------------------------------------------------------------|
G|------------------------------------------------------------------------------|
D|------7-5-7-5-7-5-7-5--7---7---7---7-6--7---7---7---7---7-6-7-6-7-6-7-6-------|
A|------------------------------------------8---8---8---8-----------------------|
E|-------------------------8---8---8--------------------------------------------|
      My daddy's got a gun,   My daddy's got a gun,     you better run
 
  [palm mute]
e|------------------------------------------------------------------------------|
B|------------------------------------------------------------------------------|
G|------------------------------------------------------------------------------|
D|------7-5-7-5-7-5-7-5--7---7---7---7-6--7---7---7---7---7-6-7-6-7-6-7-6-------|
A|------------------------------------------8---8---8---8-----------------------|
E|-------------------------8---8---8--------------------------------------------|
      My daddy's got a gun,   My daddy's got a gun,     ga-ga-ga-ga-ga
 
 [1ST VERSE]
 [Palm mute]
e|---------------------------------------------------------------------------|
B|--1---1----------1-1----1-1----1--1-------1-1--1-1--1--1--1-1---1-1---4--4-|
G|--2---2----------2-2----2-2----0--0-------0-0--0-0--2--2--2-2---2-2---5--5-|
D|--2---2----------2-2----2-2----2--2-------2-2--2-2--3--3--3-3---3-3---6--6-|
A|--2---2----------2-2----2-2----2--2-------2-2--2-2--3--3--3-3---3-3---6--6-|
E|----------------------------------------------------1--1--1-1---1-1---4--4-|
   It started with the hayloft, a-creakin' It just started in the hay (loft!)
 
 [palm mute]                                                         [unmute]
e|-------------------------------------------------------------------------------|
B|--1---1----------1-1----1-1----1--1-------1-1--1-1--1--1--1-1---1-1------------|
G|--2---2----------2-2----2-2----0--0-------0-0--0-0--2--2--2-2---2-2---------2--|
D|--2---2----------2-2----2-2----2--2-------2-2--2-2--3--3--3-3---3-3---------2--|
A|--2---2----------2-2----2-2----2--2-------2-2--2-2--3--3--3-3---3-3---------0--|
E|----------------------------------------------------1--1--1-1---1-1------------|
   With his long-johns on pop went a-creeping, up through the bottom of the hay
 
e|------------------------------------------------------------------------------|
B|------------------------------------------------------------------------------|
G|--------------------------------------5---------------------------------------|
D|------7-5-7-5-7-----5--7-5-7------5-7----7---7---7---7----7-6-7-6-7-6-7-6-----|
A|------------------7-------------7----------8---8---8---8----------------------|
E|----------------8-------------8-----------------------------------------------|
  Young lovers and they are not sleeping, young lovers in the hay (loft!)
 
e|--------------------------------------------------------------------------------|
B|--------------------------------------------------------------------------------|
G|----------------------------------------5---------------------------------------|
D|------7-5-7-5-7------5--7-5-7-------5-7----7---7---7---7----7-6-7-6-7-6-7-6-----|
A|-------------------7--------------7----------8---8---8---8----------------------|
E|-----------------8--------------8-----------------------------------------------|
    With his gun turned on pop went a-creeping, up to the bottom through the hay (loft!)
 
[Chorus]
e|------------------------------------------------------------------|
B|--1--1----1-1---1-1----1--1---1-1--1-1--1--1--1-1-1-1--4--4--4-4--|
G|--2--2----2-2---2-2----0--0---0-0--0-0--2--2--2-2-2-2--5--5--5-5--|
D|--2--2----2-2---2-2----2--2---2-2--2-2--3--3--3-3-3-3--6--6--6-6--|
A|--0--0----0-0---0-0----3--3---3-3--3-3--3--3--3-3-3-3--6--6--6-6--|
E|----------------------------------------1--1--1-1-1-1--4--4--4-4--|
   My daddy's got a gun, my daddy's got a gun, you better run
 
e|----------------------------------------------------------------------------|
B|--1--1----1-1---1-1----1--1---1-1--1-1--1--1--1-1-1-1--4--4--4-4-4-4--------|
G|--2--2----2-2---2-2----0--0---0-0--0-0--2--2--2-2-2-2--5--5--5-5-5-5--------|
D|--2--2----2-2---2-2----2--2---2-2--2-2--3--3--3-3-3-3--6--6--6-6-6-6--------|
A|--0--0----0-0---0-0----3--3---3-3--3-3--3--3--3-3-3-3--6--6--6-6-6-6--------|
E|----------------------------------------1--1--1-1-1-1--4--4--4-4-4-4--------|
   My daddy's got a gun, my daddy's got a gun, ga-ga-ga-ga
 
  [BREAK]
e|----------------5--------------5------------5-7--|-----7--5-------------------|
B|----5-5--5-6-8-----5-5--5-6-8-----6-6--6-8-------|--5--------8----------------|
G|-------------------------------------------------|----------------------------|
D|-------------------------------------------------|----------------------------|
A|-------------------------------------------------|----------------------------|
E|-------------------------------------------------|----------------------------|
   Ay,           ay,     ay        -ya
 
e|----------------5--------------5------------5-7--|-----7--5-------------------|
B|----5-5--5-6-8-----5-5--5-6-8-----6-6--6-8-------|--5--------8----------------|
G|-------------------------------------------------|----------------------------|
D|-------------------------------------------------|----------------------------|
A|-------------------------------------------------|----------------------------|
E|-------------------------------------------------|----------------------------|
   Ay,           ay,     ay        -ya
 
e|----------------5--------------5------------5-7--|------------------------------|
B|----5-5--5-6-8-----5-5--5-6-8-----6-6--6-8-------|--4br-4br--4br--4br-----------|
G|-------------------------------------------------|------------------------------|
D|-------------------------------------------------|------------------------------|
A|-------------------------------------------------|------------------------------|
E|-------------------------------------------------|------------------------------|
   Ay,           ay,     ay        -ya
 
e|----------------5--------------5------------5-7--|-----7--5-------------------|
B|----5-5--5-6-8-----5-5--5-6-8-----6-6--6-8-------|--5--------8----------------|
G|-------------------------------------------------|----------------------------|
D|-------------------------------------------------|----------------------------|
A|-------------------------------------------------|----------------------------|
E|-------------------------------------------------|----------------------------|
   Ay,           ay,     ay        -ya   a ga-ga-ga-ga
 
[Bridge]
e|------------------------------------------------------------------------------|
B|------------------------------------------------------------------------------|
G|--------------------------------------5---------------------------------------|
D|------7-5-7-5-7-----5--7-5-7------5-7----7---7---7---7----7-6-7-6-7-6-7-6-----|
A|------------------7-------------7----------8---8---8---8----------------------|
E|----------------8-------------8-----------------------------------------------|
 
e|------------------------------------------------------------------------------|
B|------------------------------------------------------------------------------|
G|--------------------------------------5---------------------------------------|
D|------7-5-7-5-7-----5--7-5-7------5-7----7---7---7---7----7-6-7-6-7-6-7-6-----|
A|------------------7-------------7----------8---8---8---8----------------------|
E|----------------8-------------8-----------------------------------------------|
 
[Chorus]
e|------------------------------------------------------------------------------|
B|------------------------------------------------------------------------------|
G|------------------------------------------------------------------------------|
D|------7-5-7-5-7-5-7-5--7---7---7---7-6--7---7---7---7---7-6-7-6-7-6-7-6-------|
A|------------------------------------------8---8---8---8-----------------------|
E|-------------------------8---8---8--------------------------------------------|
      My daddy's got a gun,   My daddy's got a gun,     you better run
 
e|------------------------------------------------------------------------------|
B|------------------------------------------------------------------------------|
G|------------------------------------------------------------------------------|
D|------7-5-7-5-7-5-7-5--7---7---7---7-6--7---7---7---7---7-6-7-6-7-6-7-6-------|
A|------------------------------------------8---8---8---8-----------------------|
E|-------------------------8---8---8--------------------------------------------|
      My daddy's got a gun,   My daddy's got a gun,     ga-ga-ga-ga-ga
 
[Chorus]
[acapella]
It all started with the hayloft, a-creaking, well it just started with the hay
 
e|-------------------------------------------------------------------------------|
B|-------------------------------------------------------------------------------|
G|------2~~~~~~~~~~~~~~~~~~~~~~~~~~~~~~~~~~~~~~~~~~~~~~~~~~~~~~~~~~~~~~~~---2----|
D|------2~~~~~~~~~~~~~~~~~~~~~~~~~~~~~~~~~~~~~~~~~~~~~~~~~~~~~~~~~~~~~~~~---2----|
A|------0~~~~~~~~~~~~~~~~~~~~~~~~~~~~~~~~~~~~~~~~~~~~~~~~~~~~~~~~~~~~~~~~---0----|
E|-------------------------------------------------------------------------------|
        With his long-johns on pop went a-creepin', up through the bottom of hay...
 
e|----x----x---x----x-----x-x---x---x---x--|
B|----x----x---x----x-----x-x---x---x---x--|
G|----x----x---x----x-----x-x---x---x---x--|
D|----x----x---x----x-----x-x---x---x---x--|
A|----x----x---x----x-----x-x---x---x---x--|
E|----x----x---x----x-----x-x---x---x---x--|
Young lovers with their legs tied up in knots,
 
e|---x----x---x----x-----x-x---x---x---x--|
B|---x----x---x----x-----x-x---x---x---x--|
G|---x----x---x----x-----x-x---x---x---x--|
D|---x----x---x----x-----x-x---x---x---x--|
A|---x----x---x----x-----x-x---x---x---x--|
E|---x----x---x----x-----x-x---x---x---x--|
 young lovers with their legs tid up in knots!
 
e|---x----x---x----x-----x-x---x---x---x--|
B|---x----x---x----x-----x-x---x---x---x--|
G|---x----x---x----x-----x-x---x---x---x--|
D|---x----x---x----x-----x-x---x---x---x--|
A|---x----x---x----x-----x-x---x---x---x--|
E|---x----x---x----x-----x-x---x---x---x--|
With his long-tall gun pop went a-creepin'
 
e|---x----x---x----x-----x-x---x---x---x--|
B|---x----x---x----x-----x-x---x---x---x--|
G|---x----x---x----x-----x-x---x---x---x--|
D|---x----x---x----x-----x-x---x---x---x--|
A|---x----x---x----x-----x-x---x---x---x--|
E|---x----x---x----x-----x-x---x---x---x--|
To blow their hayloft bed-heads straight off!
 
[Chorus]
e|------------------------------------------------------------------|
B|--1--1----1-1---1-1----1--1---1-1--1-1--1--1--1-1-1-1--4--4--4-4--|
G|--2--2----2-2---2-2----0--0---0-0--0-0--2--2--2-2-2-2--5--5--5-5--|
D|--2--2----2-2---2-2----2--2---2-2--2-2--3--3--3-3-3-3--6--6--6-6--|
A|--0--0----0-0---0-0----3--3---3-3--3-3--3--3--3-3-3-3--6--6--6-6--|
E|----------------------------------------1--1--1-1-1-1--4--4--4-4--|
   My daddy's got a gun, my daddy's got a gun, you better run
 
e|------------------------------------------------------------------|
B|--1--1----1-1---1-1----1--1---1-1--1-1--1--1--1-1-1-1--4--4--4-4--|
G|--2--2----2-2---2-2----0--0---0-0--0-0--2--2--2-2-2-2--5--5--5-5--|
D|--2--2----2-2---2-2----2--2---2-2--2-2--3--3--3-3-3-3--6--6--6-6--|
A|--0--0----0-0---0-0----3--3---3-3--3-3--3--3--3-3-3-3--6--6--6-6--|
E|----------------------------------------1--1--1-1-1-1--4--4--4-4--|
   My daddy's got a gun, my daddy's got a gun, you better run
 
e|------------------------------------------------------------------|
B|--1--1----1-1---1-1----1--1---1-1--1-1--1--1--1-1-1-1--4--4--4-4--|
G|--2--2----2-2---2-2----0--0---0-0--0-0--2--2--2-2-2-2--5--5--5-5--|
D|--2--2----2-2---2-2----2--2---2-2--2-2--3--3--3-3-3-3--6--6--6-6--|
A|--0--0----0-0---0-0----3--3---3-3--3-3--3--3--3-3-3-3--6--6--6-6--|
E|----------------------------------------1--1--1-1-1-1--4--4--4-4--|
   My daddy's got a gun, my daddy's got a gun, you better run
 
e|----------------------------------------------------------------------------|
B|--1--1----1-1---1-1----1--1---1-1--1-1--1--1--1-1-1-1--4--4--4-4-4-4--------|
G|--2--2----2-2---2-2----0--0---0-0--0-0--2--2--2-2-2-2--5--5--5-5-5-5--------|
D|--2--2----2-2---2-2----2--2---2-2--2-2--3--3--3-3-3-3--6--6--6-6-6-6--------|
A|--0--0----0-0---0-0----3--3---3-3--3-3--3--3--3-3-3-3--6--6--6-6-6-6--------|
E|----------------------------------------1--1--1-1-1-1--4--4--4-4-4-4--------|
   My daddy's got a gun, my daddy's got a gun, ga-ga-ga-ga
 
[Outro]
e|----------------5--------------5------------5-7--|-----7--5-------------------|
B|----5-5--5-6-8-----5-5--5-6-8-----6-6--6-8-------|--5--------8----------------|
G|-------------------------------------------------|----------------------------|
D|-------------------------------------------------|----------------------------|
A|-------------------------------------------------|----------------------------|
E|-------------------------------------------------|----------------------------|
   Ay,           ay,     ay        -ya
 
e|----------------5--------------5------------5-7--|-----7--5-------------------|
B|----5-5--5-6-8-----5-5--5-6-8-----6-6--6-8-------|--5--------8----------------|
G|-------------------------------------------------|----------------------------|
D|-------------------------------------------------|----------------------------|
A|-------------------------------------------------|----------------------------|
E|-------------------------------------------------|----------------------------|
   Ay,           ay,     ay        -ya, ga-ga-ga-ga-ga
 
 
e|-----------------------------------------------------------------------------|
B|-----------------------------------------------------------------------------|
G|-----------------------------------------------------------------------------|
D|----------------------------------------------------------7-5-7-5-7-5-7-5--7-|
A|-----------------------------------------------------------------------------|
E|-----------------------------------------------------------------------------|
 
          A ga-ga-ga-ga!
 
 
Bass part
------------------------------------------------------------------------------|
------------------------------------------------------------------------------|
------------------------------------------------------------------------------|
------5-----5----/-----8-----8-----/----1-----1-----/---4-----4---------------|
            
Submit corrections

↑ Back to top | Tablatures and chords for acoustic guitar and electric guitar, ukulele, drums are parodies/interpretations of the original songs. You may use it for private study, scholarship, research or language learning purposes only