Home » M » Morphine »

Morphine - Candy Bass

Artists:  A B C D E F G H I J K L M N O P Q R S T U V W X Y Z # 

Candy Bass

(ver. 1) Click to play this song!
Morphine
[Intro and Verse]

X|---------------------------------------------------------------------------|
A|--------8---8\--------7---7\--------5---5/--------7---7/-------------------|
D|-8--8-8---8----7--7-7---7----5--5-5---5----7--7-7---7----------------------|
X|---------------------------------------------------------------------------|

[Chorus]

X|---------------------------------------------------------------------------|
A|--------8---8\--------7---7/--------8---8/-----------10----10--------------|
D|-8--8-8---8----7--7-7---7----8--8-8---8----10--10-10----10-----------------|
X|---------------------------------------------------------------------------|            
Submit corrections

↑ Back to top | Tablatures and chords for acoustic guitar and electric guitar, ukulele, drums are parodies/interpretations of the original songs. You may use it for private study, scholarship, research or language learning purposes only