Home » M » Morphine »

Morphine - All Your Way Bass

Artists:  A B C D E F G H I J K L M N O P Q R S T U V W X Y Z # 

All Your Way Bass

(ver. 1) Click to play this song!
Morphine
your gonna need to tune your A string down so that its 7th fret matches your open G 
all morphine songs are in this tuning.

2X, solo
------------------------------------------------|
-0-0/4-4-0-0/4h5-0-0/4-0-0-/5-4-0-0-/4-00-------|
------------------------------------------------|
------------------------------------------------|

chorus:
-------------------------------------------------|
-0-0/4-4-0-0/4h5-0-0/4-0-0-/5--9--7--5-4---------|
-------------------------------------------------|
-------------------------------------------------|

verse:
-----------------------------------|
-5-5-5-5-7-7-7-7-------------------|
-0-0-0-0-0-0-0-0-------------------|
-----------------------------------|
wooahh...lets put it to bed...
            
Submit corrections

↑ Back to top | Tablatures and chords for acoustic guitar and electric guitar, ukulele, drums are parodies/interpretations of the original songs. You may use it for private study, scholarship, research or language learning purposes only