» » »

Mormon Tabernacle Choir - I Stand All Amazed Tabs

Artists:  A B C D E F G H I J K L M N O P Q R S T U V W X Y Z # 

I Stand All Amazed Tabs

(ver. 1) Click to play this song!
Mormon Tabernacle Choir
 Rating:
4.3/5 (6 votes)
    I Stand All Amazed lessons Tabs too difficult? Try these video lessons and learn fast
                Hi there, this is my first tab submission, hope you enjoy my version of this beautiful Hymn.

 E---|-----3---0---|-------------|-----3---0---|-2-0------5-|
 B-3-|-3-----3-----|-3---0---1---|-3-----3---3-|-----3---3--|
 G---|---0-------5-|---0---0---2-|---0---------|--------5---|
 D---|-------------|-------------|-------------|-------0----|
 A---|-------------|-------------|-------------|------------|
 E---|-------------|-------------|-------------|------------|

 E---|-----5---3---|-2---0-------|-2---0---2---|-0----------|
 B-3-|-3-----3---3-|---3---------|-------------|---4-3---3--|
 G---|---5---------|-------5-5---|---5-------5-|-5---4--4---|
 D---|-------------|-----------0-|-------0-----|-------0----|
 A---|-------------|-------------|-------------|------------|
 E---|-------------|-------------|-------------|------------|

 E---|-----3---0---|-------------|-----3---0---|-2-3-5----5-|
 B-3-|-3-----3-----|-3---0---1---|-3-----3---3-|-3----------|
 G---|---0-------5-|---0---0---2-|---0---------|------------|
 D---|-------------|-------------|-------------|-----4---4--|
 A---|-------------|-------------|-------------|-------0----|
 E---|-------------|-------------|-------------|------------|


 E-5-|-5---9---7-5-|-0---2---3---|-7---5---3---|-2-0------5-|
 B---|---5---5-----|-------------|-----------3-|-3---3---3--|
 G---|-------------|---2---2---2-|---7---5-----|-----5--5---|
 D---|-------------|-------------|-------------|-------0----|
 A---|-------------|-------------|-------------|------------|
 E---|-------------|-------------|-------------|------------|

 E-7---7---5---|-5-3-3---753-|-3-2-2---532-|-0------------|
 B-------------|-----------3-|-3-3-3---753-|-----3-3------|
 G--7---7---5--|-5---4-------|-------------|--------------|
 D---0---0---0-|-------------|-----0-------|--------------|
 A-------------|-------------|-------------|-3-----3------|
 E-------------|-------------|-------------|--------------|

 E-10---8---7--|-5---7---8~--|-7---5---3---|-2~-3---3---3-|
 B---12--10--8-|--5---5--5~--|--8---5---3--|-3~--0---0--0-|
 G-----0---0--0|---5---5-5~--|---7---5---4-|-2~---0---0-0-|
 D-------------|-------------|-------------|--------0-----|
 A-------------|-------------|-------------|--------------|
 E-------------|-------------|-------------|----3-------3-|
            
Submit corrections

↑ Back to top | Tablatures and chords for acoustic guitar and electric guitar, ukulele, drums are parodies/interpretations of the original songs. You may use it for private study, scholarship, research or language learning purposes only