» » »

Moriarty - Esperanza Tabs

Artists:  A B C D E F G H I J K L M N O P Q R S T U V W X Y Z # 

Esperanza Tabs

(ver. 1) Click to play this song!
Moriarty
 Rating:
4.3/5 (15 votes)

 Esperanza  lessons Tabs too difficult? Try these video lessons and learn fast
 
                [Chorus]

e|--------------------------|------------------------------------------------|
B|--------------------------|------------------------------------------------|
G|--------------------------|------------------------------------------------|
D|--------------------------|------------------------------------------------|
A|-5-3-0--------------------|------------------------------------------------|
D|-------0-6-5-3-0-3-5-0-0--|--0-3-0-3-4-5-0-3-4-5-5-------------------------|
                                                                                 x2
e|--------------------------|------------------------------------------------|
B|--------------------------|------------------------------------------------|
G|--------------------------|------------------------------------------------|
D|--------------------------|--5-3-0-0-3-5-3-0-------------------------------| short
A|-3-0-3-0-3-4-5-0-3-4-5-5--|------------------------------------------------|
D|--------------------------|------------------\0----------------------------|


[Verse]

e|---------------------------------------------|-----------------------------|
B|---------------------------------------------|-----------------------------|
G|---------------------------------------------|--x2-------------------------|
D|---------------------------------------------|-----------------------------|
A|-3-4-5-0--------------------3-4-5-0----------|-----------------------------|
D|-------0----3-4-5---3-5-0---------0--3-4-5---|-----------------------------|
PM       .                          .


[Pre-Chorus]

e|---------------------------------------------------------------------------|
B|---------------------------------------------------------------------------|
G|---------------------------------------------------------------------------|
D|---------0-00-------------------0---0--0--------0---0--0-------------------|
A|-8-7-5-5-------------------------------------------------------------------|
D|--------------8-7-5-10--1010--3---3-----------2---2------------------------|

e|---------------------------------------------------------------------------|
B|---------------------------------------------------------------------------|
G|---------------------------------------------------------------------------|
D|---------0-00-------------------0---0--0-----------------------------------|
A|-8-7-5-5-------------------------------------------------------------------|
D|--------------8-7-5-10-10-10--3---3-----------2-2-2-2-2-2-\0---------------|


[Chorus]

e|--------------------------|------------------------------------------------|
B|--------------------------|------------------------------------------------|
G|--------------------------|------------------------------------------------|
D|--------------------------|------------------------------------------------|
A|-5-3-0--------------------|------------------------------------------------|
D|-------0-6-5-3-0-3-5-0-0--|--0-3-0-3-4-5-0-3-4-5-5-------------------------|

e|--------------------------|------------------------------------------------|
B|--------------------------|------------------------------------------------|
G|--------------------------|------------------------------------------------|
D|--------------------------|--5-3-0-0-3-5-3-0-3-5-3-0-----------------------| long
A|-3-0-3-0-3-4-5-0-3-4-5-5--|------------------------------------------------|
D|--------------------------|------------------------------------------------|

e|--------------------------|------------------------------------------------|
B|--------------------------|------------------------------------------------|
G|--------------------------|------------------------------------------------|
D|--------------------------|------------------------------------------------|
A|-5-3-0--------------------|------------------------------------------------|
D|-------0-6-5-3-0-3-5-0-0--|--0-3-0-3-4-5-0-3-4-5-5-------------------------|

e|--------------------------|------------------------------------------------|
B|--------------------------|------------------------------------------------|
G|--------------------------|------------------------------------------------|
D|--------------------------|--5-3-0-0-3-5-3-0-------------------------------| short
A|-3-0-3-0-3-4-5-0-3-4-5-5--|------------------------------------------------|
D|--------------------------|------------------------------------------------|


[Verse]

e|---------------------------------|-----------------------------------------|
B|---------------------------------|-----------------------------------------|
G|----------------------------x2---|-----------------------------------------|
D|---------------------------------|-----------------------------------------|
A|-3-4-5---------------------------|-----------------------------------------|
D|------------3-4-5---3-5-0--------|-----------------------------------------|   

e|---------------------------------|-----------------------------------------|
B|---------------------------------|-----------------------------------------|
G|------------7--------------------|-----------------------------------------|
D|------------9b-------------------|-----------------------------------------|
A|-3-4-5---------------------------|-----------------------------------------|
D|---------------------------------|-----------------------------------------|   

e|---------------------------------|-----------------------------------------|
B|---------------------------------|-----------------------------------------|
G|---------------------------------|-----------------------------------------|
D|---------------------------------|-----------------------------------------|
A|-3-4-5---------------------------|-----------------------------------------|
D|------------3-4-5---\0-----------|-----------------------------------------|   


[Pre-Chorus]

e|---------------------------------------------------------------------------|
B|---------------------------------------------------------------------------|
G|---------------------------------------------------------------------------|
D|---------0-00-------------------0---0--0--------0---0--0-------------------|
A|-8-7-5-5-------------------------------------------------------------------|
D|--------------8-7-5-10--1010--3---3-----------2---2------------------------|

e|---------------------------------------------------------------------------|
B|---------------------------------------------------------------------------|
G|---------------------------------------------------------------------------|
D|---------0-00-------------------0---0--0-----------------------------------|
A|-8-7-5-5-------------------------------------------------------------------|
D|--------------8-7-5-10--1010--3---3-----------2---2---2---2---2------------|


[Bridge]

e|-----------------------------|---------------------------------------------|
B|-----------------------------|---------------------------------------------|
G|-------------------x7--------|-------------------x8------------------------|
D|-----------------------------|---------------------------------------------|
A|-----------5-----------------|-------------5-------------------------------|
D|-0-5-4-3-0---0----------\0---|---0-5-4-3-0---0-----------------------------|
PM . . . . . . .


[Pre-Chorus]

e|---------------------------------------------------------------------------|
B|---------------------------------------------------------------------------|
G|---------------------------------------------------------------------------|
D|---------0-00-------------------0---0--0--------0--------------------------|
A|-8-7-5-5--------------------------------------------------------5----------|
D|--------------8-7-5-10--1010--3---3-----------2---2---0-5-4-3-0---0--------|

e|---------------------------------------------------------------------------|
B|---------------------------------------------------------------------------|
G|---------------------------------------------------------------------------|
D|---------0-00-------------------0---0--0-----------------------------------|
A|-8-7-5-5-------------------------------------------------------------------|
D|--------------8-7-5-10--1010--3---3-----------2222222222222--\0------------|


[Chorus]

e|--------------------------|------------------------------------------------|
B|--------------------------|------------------------------------------------|
G|--------------------------|------------------------------------------------|
D|--------------------------|------------------------------------------------|
A|-5-3-0--------------------|------------------------------------------------|
D|-------0-6-5-3-0-3-5-0-0--|--0-3-0-3-4-5-0-3-4-5-5-------------------------|

e|--------------------------|------------------------------------------------|
B|--------------------------|------------------------------------------------|
G|--------------------------|------------------------------------------------|
D|--------------------------|--5-3-0-0-3-5-3-0-3-5-3-0-----------------------| long
A|-3-0-3-0-3-4-5-0-3-4-5-5--|------------------------------------------------|
D|--------------------------|------------------------------------------------|

e|--------------------------|------------------------------------------------|
B|--------------------------|------------------------------------------------|
G|--------------------------|------------------------------------------------|
D|--------------------------|------------------------------------------------|
A|-5-3-0--------------------|------------------------------------------------|
D|-------0-6-5-3-0-3-5-0-0--|--0-3-0-3-4-5-0-3-4-5-5-------------------------|

e|--------------------------|------------------------------------------------|
B|--------------------------|------------------------------------------------|
G|--------------------------|------------------------------------------------|
D|--------------------------|--5-3-0-0-3-5-3-0-3-5-3-0-----------------------| long
A|-3-0-3-0-3-4-5-0-3-4-5-5--|------------------------------------------------|
D|--------------------------|------------------------------------------------|            
Submit corrections


        Esperanza  lessons Hard to play? Try these video lessons and learn fast Esperanza  lessons
        
↑ Back to top | Tablatures and chords for acoustic guitar and electric guitar, ukulele, drums are parodies/interpretations of the original songs. You may use it for private study, scholarship, research or language learning purposes only