» » »

Morbid Angel - Where The Slime Tabs

Artists:  A B C D E F G H I J K L M N O P Q R S T U V W X Y Z # 

Where The Slime Tabs

(ver. 2) Click to play this song!
Morbid Angel
 Rating:
4/5 (4 votes)

 Where The Slime lessons Tabs too difficult? Try these video lessons and learn fast
 
                (Live)
Band  Morbid Angel
Album Domination
Song  Where the Slime Live

Copyright (c)  (Giant) (1995)
Version 1.0 - (102504)

Music Trey Azagthoth
Lyrics Dave Vincent


.  - palm mute           s  - slide
~  - vibrato
h  - hammer on           b  - Bend
p  - pull off            Suffixes for bend
t  - tap                 f  - full bend    h - half bend
ph - pinched harmonic    q  - quarter bend t - tap bend
  - see comment         ^  - Hold bend    r release bend
x  - Stuccatto           ~  - vibrato bend
,  - slight palm mute    () - ghost note, sustained note
  - tremolo note         - Trill

Tuning Bb Eb Ab Db Gb Bb Eb

Note:
I put it here strictly for the viewer's pleasure, because I notice that
there is no FREE version of the tab for the solo here.
ENJOY!

Intro

-------------------------------------------------------------|
-------------------------------------------------------------|
-------------------------------------------------------------|
---------------------------ph--------------------------------|
-4~-----3~-------4~-----3~-----4~------3~-------4~-----3~----|
-2~-----1~-------2~-----1~-3b--2~------1~-------2~-----1~-3~-|
----3-2----3-2-3----3-2------------3-2----3-2-3----3-2-------|
     . .    . . .    . .            . .    . . .    . .

--------------------------------|
--------------------------------|
--------------------------------|
---------------------------ph---|
-4~-----3~-------4~-----3~------|
-2~-----1~-------2~-----1~-3b---|
----3-2----3-2-3----3-2-------2-|
     . .    . . .    . .

Riff A

------------------------------------|
------------------------------------|
------------------------------------|
------------------------------------|
----------------5-4---4---4-4---5-5-|
----------------3-2---2---2-2---3-3-|
-0--0--0--0-0-0-----0---0-----0-----|
  .  .  .  . . .     .   .     .

----------------------------------|
----------------------------------|
----------------------------------|
----------------------------------|
----------------5-4---4-5-5-5-5-5-|
----------------3-2---2-3-3-3-3-3-|
-0--0--0--0-0-0-----0-------------|
  .  .  .  . . .     .

Riff B

---------------------------|
---------------------------| final time omit last note
---------------------------|
---------------------------|
-4b-----3~-----4b-----3~---|
-2b-----1~-----2b-----1~---|
----3-2----3-2----3-2----1-|
     . .    . .    . .

Rhythm fill

-------|
-------|
-------|
-------|
-------|
-5-4-3-|
-3-2-1-|
  . . .

Riff C

------------------------------------------------------------------|
------------------------------------------------------------------|
------------------------------------------------------------------|
---------------------ph-------------------------------------------|
-4-----4-4-5---------------4--------4-----4-4-5-----4-5-5s4---4---|
-2-----2-2-3-----2-3-3p2-5-2-5-4-3--2-----2-2-3-----2-3-3s2-5-2-4-|
---0-0-------0-0---------3---3-2-1----0-0-------0-0---------3---2-|
    . .       . .             . . .    . .       . .

Riff D

------------------------------------------------------------|
------------------------------------------------------------|
------------------------------------------------------------|
--------------------------ph---------------------------ph---|
-4b-----3~-------4-----3~-----4b-----3~-------4-----3~------|
-2b-----1~-----2-2-----1~-3b--2b-----1~-----2-2-----1~-3b---|
----3-2----3-2-----3-2-----------3-2----3-2-----3-2-------2-|
     . .    . .     . .           . .    . .     . .

Riff E

----------------------|
----------------------|
----------------------|
---ph-----------------|
-2----------------4-3-|
-2----3-5-4-------2-1-|
-0-5b-1-3-2-0-0-0-----|
             . . .

Riff F

---------------------|
---------------------|
---------------------|
---------------------|
-----------------4-3-|
-2-2---5-4-------2-1-|
-0-0-0-3-2-0-0-0-----|
      .     . . .

Riff G
------------------------|
------------------------|       Produce feedback here
------------------------|
------------------------|
-2------------3---------|
-2------------3---------|
-0----0-0-0--1----------|
       . . .

Riff H

----------------|
----------------|      Last time through, omit final two chords
----------------|
----------------|
----------------|
-------6-5--5-3-|
-2-2-2-4-3--3-1-|
  . . .

Riff I

------------------------------------------------|
------------------------------------------------|
------------------------------------------------|
------------------------------------------------|
-2----------------2----------------2------------|
-2------7s8s7-----2------5s6s5-----2------7s8s7-|
-0--0-2-5s6s5-0-0-0--0-2-3s4s3-0-0-0--0-2-5s6s5-|
     . .       . .    . .       . .    . .

-----------------|
-----------------|
-----------------|
-----------------|
-----8-7--5--4-3-|
-----6-5--3--2-1-|
-0-0-------------|

Solo

---------------------------------------------------------|
-----------------t17p15p12-t17p12h15-----------t17p12h15-|
-12h14-t16p12h14---------------------t16p12h14-----------|
---------------------------------------------------------|
---------------------------------------------------------|
---------------------------------------------------------|
---------------------------------------------------------|

-t19p12h15p12h15p12-t19p12h15p12h15p12-t19p12h15-t20p12h15-|
-----------------------------------------------------------|
-----------------------------------------------------------|
-----------------------------------------------------------|
-----------------------------------------------------------|
-----------------------------------------------------------|
-----------------------------------------------------------|

-t19p12h15-t20p12h15-t19p12h15-t20p12h15p12h15p12-t22p12h15p12h15p12-|
---------------------------------------------------------------------|
---------------------------------------------------------------------|
---------------------------------------------------------------------|
---------------------------------------------------------------------|
---------------------------------------------------------------------|
---------------------------------------------------------------------|

-t20p12h15p12h15p12-t19p12h15p12h15p12-t20p12h15p12h15p12-|
----------------------------------------------------------|
----------------------------------------------------------|
----------------------------------------------------------|
----------------------------------------------------------|
----------------------------------------------------------|
----------------------------------------------------------|

-t22p12h15p12h15p12-t20p12h15p12h15p12-t20p12h15p12h15p12-|
----------------------------------------------------------|
----------------------------------------------------------|
----------------------------------------------------------|
----------------------------------------------------------|
----------------------------------------------------------|
----------------------------------------------------------|

-t19p12h15p12h15p12-t20p12h15p12h15p12-t22p12h15p12h15p12-|
----------------------------------------------------------|
----------------------------------------------------------|
----------------------------------------------------------|
----------------------------------------------------------|
----------------------------------------------------------|
----------------------------------------------------------|

-t20p12h15p12h15p12-t19p12h15-t19s22-t22p15p14p12-------|
---------------------------------------------------12---| slide
---------------------------------------------------14---|b-  wtapping
--------------------------------------------------------|  finger
--------------------------------------------------------|
--------------------------------------------------------|
--------------------------------------------------------|

-------------------------------------------ph--|
----12----12-14p12----12h14p12----12h14p12-14b-|
-14----14----------14----------14--------------|
-----------------------------------------------|
-----------------------------------------------|
-----------------------------------------------|
-----------------------------------------------|
  .  .  .  .  .     .  .        .  .

                           Trem Pick----------------------------------|
---------------------------7-8-11-12-14-15-17-19-17-15-14-12-11-------|
----------------------------------------------------------------------|
----------------------------------------------------------------------|
----------------------------------------------------------------------|
--------7-9-10-9-7-6-7-9~---------------------------------------------|
-7-9-10---------------------------------------------------------------|
----------------------------------------------------------------------|
  . . .  . . .  . . . .

--7h8h10-ts22--t22p19--------12h14h15-ts24-----|
-----------------------------------------------| slide
-----------------------19----------------------|  wtapping
--------------------------18s------------------|  finger
-----------------------------------------------|
-----------------------------------------------|
-----------------------------------------------|

-t24p19-------------------------------------------|
--------19------------11-b12r-b12r-b12~--12s9-9-9-|
-----------17s---9-11-11-b12r-b12r-b12~--12s9-9-9-|
--------------------------------------------------|
--------------------------------------------------|
--------------------------------------------------|
--------------------------------------------------|

-------------------------------------------------------------|
----7-10p7----7-10p7----7-10p7----7-10p7----7-10p7----7-10p7-|
-9b--------^9--------^9--------^9--------^9--------^9--------|
-------------------------------------------------------------|
-------------------------------------------------------------|
-------------------------------------------------------------|
-------------------------------------------------------------|

--------------------------------------------------------|
----7-10p7----7-10p7----7-10p7----7-10p7----7-12p7-12p7-|
-^9--------^9--------^9--------^9--------^9-------------|
--------------------------------------------------------|
--------------------------------------------------------|
--------------------------------------------------------|
--------------------------------------------------------|

-12p10p7------12p10p7------12p7h10------------------------|
---------12p7---------12p9---------12p7h10-10p7-10p7-10p7-|
----------------------------------------------------------|
----------------------------------------------------------|
----------------------------------------------------------|
----------------------------------------------------------|
----------------------------------------------------------|

-----------------|
-----------------| play on the whammy bar here. Listen to the song
-9brp7-----4-----|  to hear how
-------9---------|
-----------------|
-----------------|
-----------------|

Closing Riff

-------------------------------------------------------|
-------------------------------------------------------|
-------------------------------------------------------|
---------------------------ph--------------------------|
-4b-----3~-------4-----3~-----4b-----3~--------4-----3-|
-2b-----1~-----2-2-----1~--3b-2b-----1~------2-2-----1-|
----3-2----3-2-----3-2-----------3-2-----3-2-----3-2---|
     . .    . .     . .           . .     . .     . .

Notes I did this tab several years ago for a friend’s site
when I was working under the belief that I had a good ear and
could tab well. Of the tabs I did during that time, this is the
only one that came out pretty well. However, there were some
problems and I’ve tried to fix them with the more limited means
currently at my disposal. Though it’s a relatively simple song,
I wouldn’t be surprised had I made a mistake. I made virtually
no effort to get the timing accurate, so listen to the song for
that. The last runs of the solo may not be right as I can’t hear
it very well, but it should be fairly close.
That said, I’m fairly confident that this is a playable and
reasonably accurate version of the song and solo, and if I wasn’t
I wouldn’t be submitting it. Any corrections are welcome, and if
you feel you can do all or part of it better please feel free to
do so. I, like anybody else, would welcome the most accurate tab
possible for this very cool song.

Song structure

Intro
Riff A (x1)
Riff B (x4)
Rhythm fill
Riff C (x2)
Riff D (x1)
Riff A (x1)
Riff B (x4)
Rhythm fill
Riff C (x2)

Riff E (x4)
Riff F (x4)
Riff G (x4)
Riff H (x4)
Riff G (x4)
Riff H (x4)
Riff G (x4)

Riff I (x6)
Solo

Riff G (x8)
Rhythm fill
Riff C (x4)
Closing Riff
            
Submit corrections


        Where The Slime lessons Hard to play? Try these video lessons and learn fast Where The Slime lessons
        
↑ Back to top | Tablatures and chords for acoustic guitar and electric guitar, ukulele, drums are parodies/interpretations of the original songs. You may use it for private study, scholarship, research or language learning purposes only