» » »

Morbid Angel - Sworn To The Black Tabs

Artists:  A B C D E F G H I J K L M N O P Q R S T U V W X Y Z # 

Sworn To The Black Tabs

(ver. 2) Click to play this song!
Morbid Angel
 Rating:
4/5 (4 votes)

 Sworn To The Black lessons Tabs too difficult? Try these video lessons and learn fast
 
                Album:covenant

Version 1.1


============================================================================
Notation: b = full bend         / = slide up            a.h. = artificial
          r = release		\ = slide down		       harmonic	
          ~ = vibrato		h = hammer-on		tr = trillo
	  . = palm mute(pm)	p = pull-off            t = tapping              
============================================================================                             
Tuning: Eb Bb Gb Db Ab Eb
time:3/8

   intro                                                           x2 
|---------------------------------------------------------------------------|
|---------------------------------------------------------------------------|
|---------------------------------------------------------------------------|
|-/5--------------------10-1010-11-1111-------------------------------------|
|-/3--5--4------3--------8--8-8--9--9-9-------------------------------------|
|-----3--2--222-1-1111------------------------------------------------------|


  verse                                                                x4
|---------------------------------------------------------------------------|
|---------------------------------------------------------------------------|
|---------------------------------------------------------------------------|
|-/5------------------------------------------------------------------------|
|-/3--5--4-----3--------------3/4-3/4------3--------------------------------|
|-----3--2-222-1-11111111111--1/2-1/2-2222-11111----------------------------|


  chorus
|-----------|----------------------------------------------------------------|
|-----------|----------------------------------------------------------------|
|-----------|----------------------------------------------------------------|
|-----------|----------------------------------------------------------------|
|--2--2-3---|-3-3333-3h4h3-4/6-6666-4-3-3333-3h4h3-4444-6-6666---------------|
|-----------|----------------------------------------------------------------|
  fill 1       gtr 1


|-----------|----------------------------------------------------------------|
|-----------|----------------------------------------------------------------|
|-----------|----------------------------------------------------------------|
|-----------|----------------------------------------------------------------|
|-----------|----------------------------------------------------------------|
|--3--3-4---|-4-4444-4h5h4-5/7-7777-5-4-4444-4h54-5555-7-7777----------------|
  fill 1       gtr 2



  
solo...
      a.h.
|---------------------------------------------------------------------------------|
|-----5br---------------------------------t--------t--------t---------------------|
|---------5--2-2/5-2-1--1-----------3h5--12-3h5h6-10--3h5h6-8---------------------|
|--2---------------------313--(0)3h5------------------------------------------5---|
|---------------------------------------------------------------------------------|
|---------------------------------------------------------------------------------|
                        ....                                               n.h.

verse x4,fill,chorus,then second solo ......
 
riff under solo..

|---------------------------------------------------------------------------|
|---------------------------------------------------------------------------|
|---------------------------------------------------------------------------|
|-3-------------------5--3--------------------------------------------------|
|-3------3/4-3/4------5--3------3/4-3/4------5-6-6--------------------------|
|-1-1111-1/2-1/2-2222-3--1-1111-1/2-1/2-2222-3-4-4--------------------------|


 the 2 solo                                           tremolo pick
|------------------------------------------------------------------------------|
|--------------------------------------------------------------------17-18-20--|
|---------------------------------------------------------1718-17-18-----------|
|------6--5-3-3h5-3--131-------------1-3-----1-3-------------------------------|
|--2----------------------313-----1-3-----1-3----3rb---------------------------|
|-----------------------------1-3----------------------1-----------------------|
              a.h.            . . . . . .         a.h.  slow bar down




|-16-18-20-21-21p18181818-21p18181818------------161513---------------------|
|--------------------------------------20-18b-13-------161413-14-13h14p13---|
|---------------------------------------------------------------------------|
|---------------------------------------------------------------------------|
|---------------------------------------------------------------------------|
|---------------------------------------------------------------------------|
                  repeat


|---------------------------------------------------------------------------|
|----13-14-16p14p13---------------------------------------------------------|
|-15----------------15-13-12-------13-14-14br-14br---13p15h13p15h13---------|
|---------------------------------------------------------------------------|
|---------------------------------------------------------------------------|
|-----------------------------x---------------------------------------------|
                                          a.h  a.h

                                                     t   
|------------------------------------------13/15h16h18/23-p16p15------------|
|--13131313p16-13131313p16----------8h9h11----------------------------------|
|--------------------------14rb--10-----------------------------------------|
|---------------------------------------------------------------------------|
|---------------------------------------------------------------------------|
|---------------------------------------------------------------------------|



|---------------------------------------------------------------------------|
|--18p16p13----13h18p14p13--------------------------------------------------|
|-----------15--------------------------------------------------------------|
|---------------------------------------------------------------------------|
|---------------------------------------------------------------------------|
|---------------------------------------------------------------------------|
 
 cannot tab more by now....


tapping part 

|---------------------------------------------------------------------------|
|---------------------------------------------------------------------------|
|--9t-5p2--9t-5p2--9t-5p2----8t4p1-8t4p1-8t4p1------------------------------|
|---------------------------------------------------------------------------|
|---------------------------------------------------------------------------|
|---------------------------------------------------------------------------|


riff a 2 times
|---------------------------------------------------------------------------|
|---------------------------------------------------------------------------|
|--9t5p2-9t5p2-8t4p1--10t6p3-10t6p3-10t6p3----------------------------------|
|---------------------------------------------------------------------------|
|---------------------------------------------9t2h3h5-9t4h5h7---------------|
|---------------------------------------------------------------------------|


                                                             end of riff a
|---------------------------------------------------------------------------|
|---------------------------------------------------------------------------|
|--9t5p2-9t5p2-9t5p2--8t4p1-8t4p1-8t4p1-------------------------------------|
|--------------------------------------------9t2h3h5-9t2h3h5----------------|
|---------------------------------------------------------------------------|
|---------------------------------------------------------------------------|


then
|---------------------------------------------------------------------------|
|---------------------------------------------------------------------------|
|--9t5p2-9t5p2-8t4p1--10t6p3-10t6p3-10t6p3----------------------------------|
|---------------------------------------------------------------------------|
|----------------------------------------------12t5h6h8-12t7h8h10-----------|
|---------------------------------------------------------------------------|



riff b x1
|---------------------------------------------------------------------------|
|---------------------------------------------------------------------------|
|--12t7-12t-7-12t7-11t6-11t6-11t6-------------------------------------------|
|---------------------------------------------------------------------------|
|------------------------------------12t5h6h8-12t5h6h8----------------------|
|---------------------------------------------------------------------------|


riff c x1
|---------------------------------------------------------------------------|
|---------------------------------------------------------------------------|
|--12t7-12t7-11t6-13t8-13t8-13t8--------------------------------------------|
|---------------------------------------------------------------------------|
|------------------------------------12t5h6h8-12t7h8h10--------------- -----|
|---------------------------------------------------------------------------|

poi riff b x1
poi riff c x1 only first part


|---------------------------------------------------------------------------|
|---------------------------------------------------------------------------|
|---------------------------------------------------------------------------|
|-----10/11/10/13/10------11-11-11--10-10-10--------------------------------|
|------8/-9/-8/11/-8-------9--9--9---8--8--8--------------------------------|
|-0000---------------0000--------------------0000---------------------------|

                                                                     
|---------------------------------------------------------------------------|
|---------------------------------------------------------------------------|
|---------------------------------------------------------------------------|
|-----10/11/10/13/10------11------10----------------------------------------|
|------8/-9/-8/11/-8-------9-------8----------------------------------------|
|-0000---------------0000----10-9-------------------------------------------|


                                                                 x4
|---------------------------------------------------------------------------|
|---------------------------------------------------------------------------|
|---------------------------------------------------------------------------|
|--4-44---------------------------------------------------------------------|
|--2-22-3------3/4/3--6-3---------------------------------------------------|
|-------1h0000-1/2/1--4-1--0000---------------------------------------------|


  fill 2
|--------------------|
|--------------------|
|--------------------|
|-4-44---------------|
|-2-22---------------|
|-------1------------|
     depress bar



then 
intro x2
verse,fill 1,chorus
last solo

the end
i think the solos are pretty much correct.....really hard to tab trey's solos and doing it
suck you a lot of concentration ....so it may happens that i haven't get every note,so
when i wasn't sure i haven't write it....if you can get them please mail me.enjoy music...
            
Submit corrections


        Sworn To The Black lessons Hard to play? Try these video lessons and learn fast Sworn To The Black lessons
        
↑ Back to top | Tablatures and chords for acoustic guitar and electric guitar, ukulele, drums are parodies/interpretations of the original songs. You may use it for private study, scholarship, research or language learning purposes only