» » »

Morbid Angel - Summoning Redemption Tabs

Artists:  A B C D E F G H I J K L M N O P Q R S T U V W X Y Z # 

Summoning Redemption Tabs

(ver. 1) Click to play this song!
Morbid Angel
 Rating:
4/5 (4 votes)

 Summoning Redemption lessons Tabs too difficult? Try these video lessons and learn fast
 
                Summoning Redemption by Morbid Angel
Originally played on 7 string tuned to Bb


**  - Palm mute          
+++ - Tremolo pick        
 
Tune Gtr to Eb 

Intro
|------------------------------------------------------------------------|
|------------------------------------------------------------------------|
|------------------------------------------------------------------------|
|------------------------------------------------------------------7--5--|
|---------999998888888------8888--------------999988888888------8--5--3--|
|-77778888------------101010----10101077778888------------101010---------|
PM***************************************************************  *  * 
TR+++++++++++++++++++++++++++++++++++++++++++++++++++++++++++++++

Riff A
|-------------------------------------------------------------------|
|-------------------------------------------------------------------|
|-------------------------------------------------------------------|
|------------------------------------------------------------7--5---| Gtr.
|---------99--88--88------88--------------99--88--88------8--5--3---| 1
|-77--88------------1010-----1010--77--88-----------1010------------|
PM**  **  **  **  ** **   **  **   **  **  ** **  ** **   *  *  *
TR++  ++  ++  ++  ++ ++   ++  ++   ++  ++ ++  ++  ++ ++   +
  
|--------------------------------------------------------------------|
|--------------------------------------------------------------------|
|--------------------------------------------------------------------|
|--------------------------------------------------------------7--5--| Gtr.
|---------999988888888----8888------------999988888888------8--5--3--| 2
|-77778888------------1010----101077778888------------101010---------|
PM***********************************************************  *  *
TR+++++++++++++++++++++++++++++++++++++++++++++++++++++++++++


Riff B
|--------------------------------------------|
|--------------------------------------------|
|----------------------------8~----8~----8~--|
|10~---10---9-----9---/7~----------7~----7~--|changed already
|----------------------------6~----6~----6~--|
|-8~----8---7-----7---/5~--------------------|


Riff C
|--------------------------------------------|
|--------------------------------------------|
|--------------------------------------------|
|-7--7--4--7--4-4----------------------------|
|-5--5--2--5--2-2--5555-3333-2222-5555-2222--|
|--------------------------------------------|
PM*  *  *     * *  **** **** **** **** ****     
TR                 ++++ ++++ ++++ ++++ ++++

Riff D
|---------------------------------------------------------------------------------|
|---------------------------------------------------------------------------------|
|--------------------------------------------------------8~-----------------------|
|--------------------------------------------------------8~-----------------------|
|------------------------101010--------------------6—6-4-6~101010-------101010----|
|-77777778888888999999999------88888888777777777777--------------9999999------9999|
PM*************************************************        ***********************
TR+++++++++++++++++++++++++++++++++++++++++++++++++        +++++++++++++++++++++++
            
Submit corrections


        Summoning Redemption lessons Hard to play? Try these video lessons and learn fast Summoning Redemption lessons
        
↑ Back to top | Tablatures and chords for acoustic guitar and electric guitar, ukulele, drums are parodies/interpretations of the original songs. You may use it for private study, scholarship, research or language learning purposes only