» » »

Morbid Angel - Rapture Tabs

Artists:  A B C D E F G H I J K L M N O P Q R S T U V W X Y Z # 

Rapture Tabs

(ver. 1) Click to play this song!
Morbid Angel
 Rating:
4/5 (4 votes)

 Rapture lessons Tabs too difficult? Try these video lessons and learn fast
 
                Rapture by Morbid Angel

Tuning Eb
 
A
|-----------------------------------------------|
|-----------------------------------------------| 
|-----------------------------------------------| 
|-----------------------------------------------| 
|-3-----------------------------2-2-2-2-1-1-1-1-| 
|-1-2-2-1-1-3-3-3-2-1-3-3-3-2-1-----------------| 
PM  * * * * * * * * * * * * * * * * * * * * * * 

|-------------------------------------------------| 
|-------------------------------------------------|
|-------------------------------------------------| 
|---------------------------------4---3--/6-------| 
|---------------------------------2---1--/4-------| 
|-1-1-2-2-1-1-3-3-3-2-1-3-3-3-2-1-----------------| 
PM* * * * * * * * * * * * * * * * 

B Play 4 Times
|------------------------------------------------------------------|
|------------------------------------------------------------------| 
|------------------------------------------------------------------| 
|------------------------------------------------------------------| 
|-------------------------------------------------------2-2-2-2-1-1| 
|-1-1-1-2-2-1-1-4-4-4-4-3-3-3-3-1-1-4-4-4-4-3-3-3-3-1-1------------|
PM* * * * * * * * * * * * * * * * * * * * * * * * * * * * * * * * *


|-----------------------------------------------------------------------|
|-----------------------------------------------------------------------|
|-----------------------------------------------------------------------| 
|-------------------------------------------------------4---3--/6-------| 
|-------------------------------------------------------2---1--/4-------| 
|-1-1-1-2-2-1-1-4-4-4-4-3-3-3-3-1-1-4-4-4-4-3-3-3-3-1-1-----------------| 
PM* * * * * * * * * * * * * * * * * * * * * * * * * * * 

C Play 4 Times
|----------------------------------|
|----------------------------------| 
|--------------9---------------10--| 
|--------------9------9\8------10--| 
|-------8------7------7\6-9\8--8---| 
|-7-8-7-6--6-6----6-6-----7\6------| 
PM* * *    * *    * *

D1 Play 3 Times 
|------------------------------|
|------------------------------|
|------------------------------| 
|------------------------------| 
|---------------5-8------------| 
|-666688885555-8---------------|
PM************  

D2 
|------------------------------|
|------------------------------|
|------------------------------| 
|------------------------------| 
|---------------5-8------------| 
|-666688885555-8---------------| 
PM************ 

Repeat D1 & D2, C, (D1 + D2) x 2, and C 

E1 
|-----------------------------------|----------------------------|
|-----------------------------------|----------------------------|
|-----------------------------------|----------------------------| 
|-----------------------------------|----------------------------| 
|-----------------0-0-0-0-1-1-------|------------------0--1-0----| 
|-1-1-1-1-2-2-2-2-------------2-4-2-|-1-1-1-1-2-2-2-2---------2--| 
PM* * * * * * * * * * * * * * * * *   * * * * * * * * 

E2 
|-----------------------------------|----------------------------| 
|-----------------------------------|-------------------2--3-----| 
|-----------------1-1-1-1--------3--|-------------------0--1-----| 
|-1-1-1-1-2-2-2-2----------2--2--1--|-1-1-1-1-2-2-2-2------------| 
PM* * * * * * * * * * * *             * * * * * * * * 
Repeat (E1 + E2) 3 more times F A.H. 

Play 8 Times
|------------------------------------------|
|------------------------------------------| 
|------------------------------------------| 
|------------------------------------------| 
|-4---3--3--3--0--1--0~----7~--6--3--4--5--| 
|-2---1--1--1------------------4--1--2--3--| 
PM    *  *  *  *  *            *  *  *  * 

G Play 4 Times 
|-------------------------------------|
|-------------------------------------|
|-------------------------------------| 
|-------------------------------4--3--| 
|---4------6------4------6------2--1--| 
|-1-2--1-1-4--1-1-2--1-1-4--1-1-------| 
PM*    * *    * *    * *    * * 

Repeat F (4 Times) Repeat B (8 Times), C, D, C (2 Times), E1/E2.
            
Submit corrections


        Rapture lessons Hard to play? Try these video lessons and learn fast Rapture lessons
        
↑ Back to top | Tablatures and chords for acoustic guitar and electric guitar, ukulele, drums are parodies/interpretations of the original songs. You may use it for private study, scholarship, research or language learning purposes only