» » »

Morbid Angel - Opening Of The Gates Tabs

Artists:  A B C D E F G H I J K L M N O P Q R S T U V W X Y Z # 

Opening Of The Gates Tabs

(ver. 1) Click to play this song!
Morbid Angel
 Rating:
4/5 (4 votes)

 Opening Of The Gates lessons Tabs too difficult? Try these video lessons and learn fast
 
                MORBID ANGEL
Opening of the Gates


Tuning - Bb (3 steps down)


pm - palm mute
"  - tremolo pick
h  - hammer on
p  - pull off
~  - vibrato
*  - see comment


*NOTE* Listen to the song for the correct time


Intro (sorry. Still can't get this one)
|-------|
|-------|
|-------|
|-????--|
|-????--|
|-????--|


Riff 1
|---------------------------------------------------|
|---------------------------------------------------|
|---------------------------------------------------|
|-4444444422221111222277775555----------------------|
|-----------------------------77775555333322223333--|
|---------------------------------------------------|


Riff 1 (continued)
|-----------------------------------------------|
|-----------------------------------------------|
|-----------------------------------------------|
|-----------------------------------------------|
|-444444445555555577775555----------------------|
|-------------------------77775555333322223333--|


Fill
|-----------------------------|
|-----------------------------|
|-----------------------------|
|-----------------------------|
|-4---5--4---5--4---5--4---5--|
|-2---3--2---3--2---3--2---3--|
pm.   .  .   .  .   .  .   .


Riff 2
|-----------------------------------|
|-----------------------------------|
|-----------------------------------|
|-----------------------------------|
|-------------33--33------33--33----|
|-222222223333--22--222222--22--22--|


Riff 3
|------------------------------------------------------|
|------------------------------------------------------|
|------------------------------------------------------|
|------------------------------------------------------|
|--------------------------------------33333--33333----|
|-0002223332225553322555333000222333222-----22-----22--|


Riff 4a
|-----------------------------------------------------------|
|-----------------------------------------------------------|
|-----------------------------------------------------------| Gtr.
|-----------------------------------------------------------|  1
|-------1"------1"--4"------4"--3"------3"----3"----3"------|
|-2"--------2"----------6"-----------------4"----4"-----4"--|
|							    |
|-----------------------------------------------------------|
|-----------------------------------------------------------|
|-----------------------------------------------------------| Gtr.
|-----------------------------------------------------------|  2
|-------4"------4"--7"------7"--6"--------------------------|
|-5"--------5"----------9"----------------------------------|
  * unsure about guitar 2


Riff 4b
|-------------------------------------------|
|-------------------------------------------|
|-------------------------------------------| Gtr.
|-------------------------------------------|  1
|-------1"------1"--4"------4"--6"------8"--|
|-2"--------2"----------6"------------------|
|					    |
|-------------------------------------------|
|-------------------------------------------|
|-------------------------------------------| Gtr.
|-------------------------------------------|  2
|-------4"------4"--7"------7"--6"----------|
|-5"--------5"----------9"------------------|
  * unsure about guitar 2


Riff 5a
|-----------------------------------|
|-----------------------------------|
|-----------------------------------|
|-----------------------------------|
|-----------------111122221111------|
|-0000000022223333------------3333--|


Riff 5b
|--------------------------------------------------|
|--------------------------------------------------|
|--------------------------------------------------|
|--------------------------------------------------|
|-----------------111122221111-----2h3p2p0-444444--|
|-0000000022223333------------3333-----------------|


Riff 6
|------------------------------------------------------------------|
|------------------------------------------------------------------|
|-777777776666-------------------555555554444----------------------| Gtr.
|-------------7777---------------------------55554444--------------|  1
|-----------------88885554555555---------------------555544445555--|
|------------------------------------------------------------------|
|								   |
|------------------------------------------------------------------|
|------------------------------------------------------------------|
|------------------------------------------------------------------| Gtr.
|------------------------------------------------------------------|  2
|-222222221111222244445554555555-----------------------------------|
|--------------------------------22222222222222551111111111111111--|


Riff 7
|-------------------------------------------|
|-------------------------------------------|
|-------------------------------------------|
|-4------5------5----------7------7------2--|
|---------------2-----------------4------2--|
|-2------3------3----------5------5------0--|
            
Submit corrections


        Opening Of The Gates lessons Hard to play? Try these video lessons and learn fast Opening Of The Gates lessons
        
↑ Back to top | Tablatures and chords for acoustic guitar and electric guitar, ukulele, drums are parodies/interpretations of the original songs. You may use it for private study, scholarship, research or language learning purposes only