» » »

Morbid Angel - Inquisition Tabs

Artists:  A B C D E F G H I J K L M N O P Q R S T U V W X Y Z # 

Inquisition Tabs

(ver. 1) Click to play this song!
Morbid Angel
 Rating:
4.2/5 (5 votes)

 Inquisition lessons Tabs too difficult? Try these video lessons and learn fast
 
                
NOTE: I play this in D tuning (D G C F A D), this tab is definitely not 100%
correct, it is the way i play it.
If anyone tabs the intro solo, please let me know

*= Artificial Harmonic (pinch harmonic)
T= Tap
s= slide
h/p= hammer on/pull off

                     *  *                   ~       ~      ~
|--------------------------|---------------------------|--------------------|
|--------------------------|---------------------------|--------------------|
|----------------7h9h10\9--|---9s=7-7h=9-7s=5-5s=4--4--|-7-9--9s10--7-7s=10-|
|--------7-9-10------------|---------------------------|--------------------|
|-7-9-10-------------------|---------------------------|--------------------|
|--------------------------|---------------------------|--------------------|
          ~~                 ~~         ~~
|-----------------------|-------------------|
|-----------------------|---17------18-17---|
|-9-12s==14-------------|-------------------|
|-----------------------|-------------------|
|-----------------------|-------------------|
|-----------------------|-------------------|

                       T              T
|----16h17p16h17p16h17-21p16h17p16h17h22-16h17p16h17--|
|-18--------------------------------------------------|
|-----------------------------------------------------|
|-----------------------------------------------------|
|-----------------------------------------------------|
|-----------------------------------------------------|

  NOTE: Tap these notes as fast as you can...
   T                          T   T                 T           T                 T           T
|-21p16h17p16h19p16h17p16h17h22--21p16h17h19p17p16h22p19p17p16h21p16h17h19p17p16-22p19p17p16-22p19p17p16-|
|--------------------------------------------------------------------------------------------------------|
|--------------------------------------------------------------------------------------------------------|
|--------------------------------------------------------------------------------------------------------|
|--------------------------------------------------------------------------------------------------------|
|--------------------------------------------------------------------------------------------------------|



   T           T        T           T                ~~
|-22p19p17p16-22p19p17----------------------------|-------|
|----------------------22p19p17p16h22p16h17p16h17-|-16----|
|-------------------------------------------------|-------|
|-------------------------------------------------|-------|
|-------------------------------------------------|-------|
|-------------------------------------------------|-------|
            
Submit corrections


        Inquisition lessons Hard to play? Try these video lessons and learn fast Inquisition lessons
        
↑ Back to top | Tablatures and chords for acoustic guitar and electric guitar, ukulele, drums are parodies/interpretations of the original songs. You may use it for private study, scholarship, research or language learning purposes only