» » »

Morbid Angel - Desolate Ways Tabs

Artists:  A B C D E F G H I J K L M N O P Q R S T U V W X Y Z # 

Desolate Ways Tabs

(ver. 2) Click to play this song!
Morbid Angel
 Rating:
3.8/5 (5 votes)

 Desolate Ways lessons Tabs too difficult? Try these video lessons and learn fast
 
                                           "Desolate Ways"

                          by MORBID ANGEL
                     from " Blessed are the Sick"

  *in part with Jay{my guitar instructor}
=========================================================================
tempo: appox.65-70 bpm

tune flat(down 1/2 step)
^^^^^^^^^^^^^^^^^^^^^^^^
Eb |----2------2-----2--||-0------0-----0--||     \
Bb |-------0----0-------||----0----0-------||     |
Gb |--------------0-----||-----------0-----||     |   figure (after first  )
Db |----2------2-----2--||-2------2-----2--||     |      1   (note on sec. )
Ab |--------------------||-----------------||     |   1 1/2x (measure, go to)
Eb |--------------------||-----------------||     /          ( figure 1a   )
           ****pick all notes with fingers****             

Eb |-----------0--------|  \
Bb |--0----------0------|  |
Gb |------0---------0---|  |   figure 
Db |--------------------|  |     1a
Ab |--------------------|  |
Eb |--------------------|  /


Eb |-----------0--------|  \
Bb |--0----------0------|  |
Gb |------0---------0---|  |   figure 
Db |---------0----------|  |     1b
Ab |--------------------|  |
Eb |--------------------|  /


Eb |----3------3-----3--||-0------0-----0--||     \
Bb |-------0-----0------||----0-----0------||     |
Gb |---------------0----||------------0----||     |   figure
Db |--------------------||-----------------||     |      2
Ab |----3------3-----3--||-3------3-----3--||     |
Eb |--------------------||-----------------||     /


Eb |----5------5-----5--||-2------0-----0--||     \
Bb |-------0-----0------||----0-----0---0--||     |
Gb |---------------0----||-------0----0-0--||     |   figure
Db |----0------------0--||--------------0--||     |      3
Ab |--------------------||-2------2-----2--||     |
Eb |--------------------||-----------------||     /
                                        ^strum lightly w/ thumb

Eb |----0------3--2--0--|  \
Bb |-------0------------|  |
Gb |--------------------|  |   figure    play fig.1a
Db |----0------3--2--2--|  |     4
Ab |--------------------|  |
Eb |--------------------|  /


Eb |----0-----3---2--0--|  \
Bb |-------0------------|  |
Gb |--------------------|  | -figure-   play fig.1b
Db |--------------------|  | -   5  -
Ab |----0-----3---2--2--|  |
Eb |--------------------|  /

Eb |----2----2-------2--||-3----3------3---||     \
Bb |------0------0------||----0----0-------||     |
Gb |---------------0----||-----------0-----||     |   f
Db |----2----2-------2--||-----------------||     |   i 
Ab |--------------------||-3----3------3---||     |   g
Eb |--------------------||-----------------||     |   u
                                                  |   r
Eb |----5-----5------5--||-2----2------2---||     |   e  
Bb |-------0-----0------||----0---0--------||     |
Gb |---------------0----||----------0------||     |   6
Db |----0-----0------0--||-----------------||     |    
Ab |--------------------||-2----2------2---||     |
Eb |--------------------||-----------------||     |
                                                  |
Eb |---0----------------|                         |
Bb |---0----------------|                         |
Gb |---0----------------|                         |  
Db |---0----------------|                         |     
Ab |---2----------------|                         |
Eb |------*let ring*----|                         /

(cool part)

                                
Eb |----------0---------||-----------------||     \           it
Bb |-------------0------||----0------------||     |          really
Gb |-------0-------0----||------0--4\2-0---||     |  -figure- starts
Db |----2------------2--||-0-------------0-||     |  -   7  -to get
Ab |--------------------||-----------------||     |        confusing  
Eb |--------------------||-----------------||     /           here
                             ? ? ? ? ? ?
       ????????????
Eb |------0-------------|
Bb |---0------0---------| 
Gb |------------0--0----|     this part, im not too sure of...
Db |------0-------0-----|
Ab |--------------------|    -figure 8-
Eb |--------------------|
       ?????????????

Eb |--------------------||-0---------0-----||     \
Bb |----0----0---0------||----0------0-----||     |
Gb |-------0---0---0----||------0----0-----||     |   figure
Db |----0----0---0------||--------0--0-----||     |      9
Ab |--------------------||-----------0-----||     |
Eb |--------------------||-----------------||     /


Eb |----2----2---2------||-3----3---3------||     \
Bb |-------0---0---0----||-0--0---0---0----||     |
Gb |------------------0-||-0------------0--||     |   figure
Db |----2----2---2------||-0---------------||     |     10
Ab |--------------------||-3----3---3------||     |
Eb |--------------------||-----------------||     /


Eb |----5-----5----5----|     \
Bb |----0--0-----0---0--|     |
Gb |----0-------------0-|     |   figure
Db |----0-----0----0----|     |      11
Ab |----0---------------|     |
Eb |--------------------|     /

                                 *let ring
Eb |----2-----2---------||---2----0----(0)-||    \        i could be wrong
Bb |----0--------0------||-----------------||     |         about this one
Gb |----0--0-------0----||-----------------||     | figure 12  (it gets real
Db |----0------------0--||-----------------||     |            difficult at 
Ab |----2---------------||-----------------||     |          ??   the end)
Eb |----0---------------||-----------------||     /




ok , if you're able to play this heres the order of how I think it goes.
                      
fig.1-1.5x  
fig.1a-1x
fig.2 -2x          i cant be exactly sure this is how it goes
fig.3 -1x           but it fits pretty closely...
fig.2 -1x
fig.3 -1x
fig.4 -1x
fig.1a-1x
fig.5 -1x
fig.1b-1x
fig.5 -1x
fig.6 -1x
fig.7 -1x
fig.8 -1x
fig.9 -1x
fig.10-1x
fig.11-1x end
--if you find any mistakes or have any suggestions that will help this song 
            
Submit corrections


        Desolate Ways lessons Hard to play? Try these video lessons and learn fast Desolate Ways lessons
        
↑ Back to top | Tablatures and chords for acoustic guitar and electric guitar, ukulele, drums are parodies/interpretations of the original songs. You may use it for private study, scholarship, research or language learning purposes only