Home » M » Moonstar 88 »

Moonstar 88 - Sulat Tabs

Artists:  A B C D E F G H I J K L M N O P Q R S T U V W X Y Z # 

Sulat Tabs

(ver. 3) Click to play this song!
Moonstar 88
Guitar Solo 

 e|----------------------------------------------------------------------------|
 B|----------------------------------------------------------------------------|
 G|---14b16-14b16r14-12---11-11h12p11----12-11-----12-11-----------------------|
 D|-----------------------------------12-------12--------12\10-10\9------------|
 A|----------------------------------------------------------------------------|
 E|----------------------------------------------------------------------------|

 
 e|----------------------------------------------------------------------------|
 B|-----------------------------------------------15-----------15--------------|
 G|----------------------------------12-14b16hold----14b16hold-----------------|
 D|---9-9/10-10-10-10/12-12-12-12h14-------------------------------------------|
 A|----------------------------------------------------------------------------|
 E|----------------------------------------------------------------------------|

 
 e|------------------15-14-----------------------------------------------------|
 B|-------------15---------15---12-13-15---------------------------------------|
 G|---14b16hold--------------------------14-12-12-11----12-11------------------|
 D|--------------------------------------------------12-------12---------------|
 A|----------------------------------------------------------------------------|
 E|----------------------------------------------------------------------------|


 e|----------------------------------------------------------------------------|
 B|-----------------------15---------------------------------------------------|
 G|---12/14-14-14---14/16-16-14-14---------------7/9-9-9-9/11-11-11------------|
 D|--------------------------------------5-7/9-9-------------------------------|
 A|----------------------------------5h7---------------------------------------|
 E|----------------------------------------------------------------------------|

 
 e|----------------------------------------------------------------------------|
 B|----------------------------13-12----13-12----------------------------------|
 G|---11/12-12-12--12/14-14-12-------12-------12\7-7\5-5-5-5\4-----------------|
 D|----------------------------------------------------------------------------|
 A|----------------------------------------------------------------------------|
 E|----------------------------------------------------------------------------|

 
 e|----------------------------------------------------------------------------|
 B|-----------------------8-10-10b12r10---8------------------------------------|
 G|---4-4/5-5-5-5/7-7---9---------------9--------------------------------------|
 D|----------------------------------------------------------------------------|
 A|----------------------------------------------------------------------------|
 E|----------------------------------------------------------------------------|

            
Submit corrections

↑ Back to top | Tablatures and chords for acoustic guitar and electric guitar, ukulele, drums are parodies/interpretations of the original songs. You may use it for private study, scholarship, research or language learning purposes only