Home » M » Moonstar 88 »

Moonstar 88 - Migraine Bass

Artists:  A B C D E F G H I J K L M N O P Q R S T U V W X Y Z # 

Migraine Bass

(ver. 2) Click to play this song!
Moonstar 88
Tuning: Standard   




Intro: D Bm F#m Gm
Guitar 1: Courtesy by FRANZ ARABIT 
e||--------------------------------------------------------------------------|
B||--------------------------------------------------------------------------|   
G||--777-999-11-11-11—14-14-14-16-14-11-11-11-11-11-11-11-11-11-11-11-11-11--|
D||--xxx-xxx-x--x--x---------------------------------------------------------|     
A||--555-777-9--9--9---------------------------------------------------------|      
E||----—---------------------------------------------------------------------|

e||--------------------------------------------------------------------------|
B||--------------------------------------------------------------------------|   
G||--777-999-11-11-11—14-14-14-16-14-12-12-12-12-11-12-----------------------|
D||--xxx-xxx-x--x--x---------------------------------------------------------|     
A||--555-777-9--9--9---------------------------------------------------------|      
E||----—---------------------------------------------------------------------|

Guitar 2: Bass
G||-----------------------------------------|-----------------------------------------------|    
D||----------------------9-7----------------|----------------------9-7----------------------|    
A||--555-777-999-12121212---9999999999999---|--555-777-999-12121212----1010101010-10910-----|    
E||------—----------------------------------|-----------------------------------------------|



Verse I:
Guitar1 (palm mute)
   D            Bm                  F#m                     Gm 
        Oo nga  pala hindi nga pala tayo hanggang dito lang ako nangangarap na mapasa’yo 
e||--------------------------------------------------------------------|
B||--------------------------------------------------------------------|   
G||--------------------------------------------------------------------|
D||--7777777777-4444444444-4444444444-5555555555-----------------------|     
A||--5555555555-2222222222-4444444444-5555555555-----------------------|      
E||------------------------2222222222-3333333333-----------------------|

Guitar1 
   D            Bm                  F#m                     Gm
        Hindi sinasadya na hanapin pa ang lugar ko asan nga ba ako andyan pa ba sa’yo
e||--------------------------------------------------------------------|
B||--------------------------------------------------------------------|   
G||--------------------------------------------------------------------|
D||--7777777777-4444444444-4444444444-5555555555-----------------------|     
A||--5555555555-2222222222-4444444444-5555555555-----------------------|      
E||------------------------2222222222-3333333333-----------------------|

Guitar2 Bass(sabay pasok: hind sinasadya... )
G||-----------------------------------------------|
D||-----------------------------------------------|     
A||--5555555--5-2222222-232-----------------------|      
E||----------7-7-----------2222222-232-3333333----|



Refrain I: Guitar1 (power chords)
D            Bm
Nahihilo, nalilito 
     F#m
Asan ba ko sa’yo
       G
Aasa ba ko sa’yo

Guitar2                
G||------------------------------------------------------------|
D||------------------------------------------------------------|     
A||--7-5-55-55-5-777999----------------------------------------|      
E||-----7--7--7--------77777777777-222222222222-33333333333----|



Verse II (guitar1 power chords)
Guitar2
   D                             Bm                  F#m                   Gm   
    Nasusuka ako, kinakain na ang loob masakit na mga tuhod kailangan bang lumuhod               
G||-----------------------------------------------|
D||-----------------------------------------------|     
A||--5555555--5-2222222-232-----------------------|      
E||----------7-7-----------2222222-232-3333333----|

    D                          Bm                     F#m                   Gm
 Gusto ko lang naman, yung totoo, yung tipong ang sagot ay hindi rin isang tanong
G||------------------------------------------------------------|
D||------------------------------------------------------------|     
A||--7-5-55-55-5-777999----------------------------------------|      
E||-----7--7--7--------77777777777-222222222222-33333333333----|
  

Refrain II: (guitar1 & guitar2 gayahin nyo lang yung na unang refrain)
D           Bm
Nahihilo, nalilito
     F#m
Asan ba ko sa’yo
       
Asan ba ko sa’yo



Repeat Refrain I:



Bridge: 
Guitar1 D Bm F#m Gm (power chords lang ulit)

Guitar2 (Bass ganyan lang yung pattern) 
     Dahil, ‘di na    makatulog (makatulog)hindi  na     makakain (makakain)
G||-------------------------------------|-------------------------------|
D||-------------------------------------|-------------------------------|     
A||---55555555--------------------------|-5555555-----------------------|      
E||-----------7777777-222222-333333-----|--------7777777-222222-333333--|
     Dahil, hindi na  makatawa(makatawa) dahil, hindi na ahhhh... 
G||-------------------------------------|-------------------------------|
D||-------------------------------------|-------------------------------|     
A||---55555555--------------------------|-5555555-----------------------|      
E||-----------7777777-222222-333333-----|--------7777777-222222-333333--|




Verse III (dito palm mute ulit bahala na kayo dumiskarte)

   D       Bm           F#m                    	
    Oo nga pala, Hindi nga pala tayo
e||---------14-----------|
B||-----------15---------|   
G||---------14-----------|
D||----------------------|     
A||----------------------|      
E||----------------------|
          G
Hanggang dito na lang ako


Nahihilo, nalilito
Asan ba ko sa’yo       
Asan ba ko sa’yo

Nahihilo, nalilito
Asan ba ko sa’yo       
Aasa ba ko sa’yo

Nahihilo.. ohh ohh oohhh oohhh..
Nahihilo... nalilito...
            
Submit corrections

↑ Back to top | Tablatures and chords for acoustic guitar and electric guitar, ukulele, drums are parodies/interpretations of the original songs. You may use it for private study, scholarship, research or language learning purposes only