» » »

Moody Blues - You And Me Tabs

Artists:  A B C D E F G H I J K L M N O P Q R S T U V W X Y Z # 

You And Me Tabs

(ver. 2) Click to play this song!
Moody Blues
 Rating:
4.6/5 (21 vote)

 You And Me lessons Tabs too difficult? Try these video lessons and learn fast
 
                Riff 1, repeat 3x

E|-------------------------|
B|-------------------------|
G|-------------------------|
D|-------------------------|
A|-------2--5-----4-----2--|
E|--0/4--------7-----5-----|


First riff turnaround

E|--------------|
B|--------------|
G|--------------|
D|--------------|
A|-----0-----2--|
E|--4-----2-----|


Riff 2 - repeat 3x

E|----------------------------|
B|----------------------------|
G|----------------------------|
D|----------2-----0--1--------|
A|-----0/4-----4--------2--0--|
E|--2-------------------------|

Second riff turnaround

E|-------------|
B|-------------|
G|-------------|
D|-------------|
A|-----0/4--2--|
E|--2----------|

Riff 3 - repeat 3x

E|----------------------------|
B|----------------------------|
G|----------------------------|
D|----------4--7-----6-----4--|
A|--2--4/6--------9-----7-----|
E|----------------------------|

Third riff turnaround

E|--------------|
B|--------------|
G|--------------|
D|-----2--------|
A|--6-----4--2--|
E|--------------|

Riff 1a (some additional notes added) - repeat 3x

E|-------------------------|
B|-------------------------|
G|-------------------------|
D|-------------------------|
A|-------2--_-5-5-4-4---2--|
E|--0/4--------7---5-------|

First riff turnaround

E|--------------|
B|--------------|
G|--------------|
D|--------------|
A|-----0-----2--|
E|--4-----2-----|

Riff 2a - repeat 3x

E|----------------------------|
B|----------------------------|
G|----------------------------|
D|----------2-2-1-1-----------|
A|-----0/4---4---2--0---------|
E|--2-------------------------|

Second riff turnaround

E|-------------|
B|-------------|
G|-------------|
D|-------------|
A|-----0/4--2--|
E|--2----------|

Riff 3a - repeat 3x

E|----------------------------|
B|----------------------------|
G|----------------------------|
D|----------4--7-7---6-6---4--|
A|--2--4/6------9-----7-------|
E|----------------------------|

Third riff turnaround

E|--------------|
B|--------------|
G|--------------|
D|-----2--------|
A|--6-----4--2--|
E|--------------|

Riff 1a -

E|-------------------------|
B|-------------------------|
G|-------------------------|
D|-------------------------|
A|-------2----5-5-4-4---2--|
E|--0/4--------7---5-------|


First riff turnaround (note that this ends on open E, not B)

E|--------------|
B|--------------|
G|--------------|
D|--------------|
A|---2-0--------|
E|--4-----2---0-|            
Submit corrections


        You And Me lessons Hard to play? Try these video lessons and learn fast You And Me lessons
        
↑ Back to top | Tablatures and chords for acoustic guitar and electric guitar, ukulele, drums are parodies/interpretations of the original songs. You may use it for private study, scholarship, research or language learning purposes only