» » »

Moody Blues - Tuesday Afternoon Tabs

Artists:  A B C D E F G H I J K L M N O P Q R S T U V W X Y Z # 

Tuesday Afternoon Tabs

(ver. 2) Click to play this song!
Moody Blues
 Rating:
4/5 (4 votes)

 Tuesday Afternoon lessons Tabs too difficult? Try these video lessons and learn fast
 
                Tuning: Standard


Intro (Acoustic Guitar)

                                 play 4 times
E--------0----------------------------------|
B--0-----1--1---0--1---3---1---0--1--0------|
G-----0--2------------------------------0---|
D--------2----------------------------------|
A--------0----------------------------------|
E-------------------------------------------|


Verse 1 & 3

    F

E--1-1-1-1--1-1-1-1--1-1-1-1--1-1-1-1--1-1-1-1--1-1-1-1--1-1-1-1--1-1-1-1--|
B--1-1-1-1--1-1-1-1--1-1-1-1--1-1-1-1--1-1-1-1--1-1-1-1--1-1-1-1--1-1-1-1--|
G--2-2-2-2--2-2-2-2--2-2-2-2--2-2-2-2--2-2-2-2--2-2-2-2--2-2-2-2--2-2-2-2--|
D--3-3-3-3--3-3-3-3--3-3-3-3--3-3-3-3--3-3-3-3--3-3-3-3--3-3-3-3--3-3-3-3--|
A--------------------------------------------------------------------------|
E--------------------------------------------------------------------------|

    C                 Bb                Am                D

E--0-0-0-0--0-0-0-0--1-1-1-1--1-1-1-1--0-0-0-0--0-0-0-0--2-2-2-2--2-2-2-2--|
B--1-1-1-1--1-1-1-1--3-3-3-3--3-3-3-3--1-1-1-1--1-1-1-1--3-3-3-3--3-3-3-3--|
G--0-0-0-0--0-0-0-0--3-3-3-3--3-3-3-3--2-2-2-2--2-2-2-2--2-2-2-2--2-2-2-2--|
D--2-2-2-2--2-2-2-2--3-3-3-3--3-3-3-3--2-2-2-2--2-2-2-2--0-0-0-0--0-0-0-0--|
A--3-3-3-3--3-3-3-3--------------------0-0-0-0--0-0-0-0--------------------|
E--------------------------------------------------------------------------|

    C                 Bb                Am                D

E--0-0-0-0--0-0-0-0--1-1-1-1--1-1-1-1--0-0-0-0--0-0-0-0--2-2-2-2--2-2-2-2--|
B--1-1-1-1--1-1-1-1--3-3-3-3--3-3-3-3--1-1-1-1--1-1-1-1--3-3-3-3--3-3-3-3--|
G--0-0-0-0--0-0-0-0--3-3-3-3--3-3-3-3--2-2-2-2--2-2-2-2--2-2-2-2--2-2-2-2--|
D--2-2-2-2--2-2-2-2--3-3-3-3--3-3-3-3--2-2-2-2--2-2-2-2--0-0-0-0--0-0-0-0--|
A--3-3-3-3--3-3-3-3--------------------0-0-0-0--0-0-0-0--------------------|
E--------------------------------------------------------------------------|

E--2-2-2-2--2-2-2-2--|
B--3-3-3-3--3-3-3-3--|
G--2-2-2-2--2-2-2-2--|
D--0-0-0-0--0-0-0-0--|
A--------------------|
E--------------------|


Verse 2 & 4

    F

E--1-1-1-1--1-1-1-1--1-1-1-1--1-1-1-1--1-1-1-1--1-1-1-1--1-1-1-1--1-1-1-1--|
B--1-1-1-1--1-1-1-1--1-1-1-1--1-1-1-1--1-1-1-1--1-1-1-1--1-1-1-1--1-1-1-1--|
G--2-2-2-2--2-2-2-2--2-2-2-2--2-2-2-2--2-2-2-2--2-2-2-2--2-2-2-2--2-2-2-2--|
D--3-3-3-3--3-3-3-3--3-3-3-3--3-3-3-3--3-3-3-3--3-3-3-3--3-3-3-3--3-3-3-3--|
A--------------------------------------------------------------------------|
E--------------------------------------------------------------------------|

    C                 Bb                Am                D

E--0-0-0-0--0-0-0-0--1-1-1-1--1-1-1-1--0-0-0-0--0-0-0-0--2-2-2-2--2-2-2-2--|
B--1-1-1-1--1-1-1-1--3-3-3-3--3-3-3-3--1-1-1-1--1-1-1-1--3-3-3-3--3-3-3-3--|
G--0-0-0-0--0-0-0-0--3-3-3-3--3-3-3-3--2-2-2-2--2-2-2-2--2-2-2-2--2-2-2-2--|
D--2-2-2-2--2-2-2-2--3-3-3-3--3-3-3-3--2-2-2-2--2-2-2-2--0-0-0-0--0-0-0-0--|
A--3-3-3-3--3-3-3-3--------------------0-0-0-0--0-0-0-0--------------------|
E--------------------------------------------------------------------------|

    C                 Bb                Am                D

E--0-0-0-0--0-0-0-0--1-1-1-1--1-1-1-1--0-0-0-0--0-0-0-0--2-2-2-2--2-2-2-2--|
B--1-1-1-1--1-1-1-1--3-3-3-3--3-3-3-3--1-1-1-1--1-1-1-1--3-3-3-3--3-3-3-3--|
G--0-0-0-0--0-0-0-0--3-3-3-3--3-3-3-3--2-2-2-2--2-2-2-2--2-2-2-2--2-2-2-2--|
D--2-2-2-2--2-2-2-2--3-3-3-3--3-3-3-3--2-2-2-2--2-2-2-2--0-0-0-0--0-0-0-0--|
A--3-3-3-3--3-3-3-3--------------------0-0-0-0--0-0-0-0--------------------|
E--------------------------------------------------------------------------|


Pre-Chorus
                      Ab

E--2-2-2-2--2-2-2-2--4-4-4-4--4-4-4-4--4-4-4-4--4-4-4-4--|
B--3-3-3-3--3-3-3-3--1-1-1-1--1-1-1-1--1-1-1-1--1-1-1-1--|
G--2-2-2-2--2-2-2-2--1-1-1-1--1-1-1-1--1-1-1-1--1-1-1-1--|
D--0-0-0-0--0-0-0-0--1-1-1-1--1-1-1-1--1-1-1-1--1-1-1-1--|
A--------------------------------------------------------|
E--------------------------------------------------------|

    C                                  Ab

E--0-0-0-0--0-0-0-0--0-0-0-0--0-0-0-0--4-4-4-4--4-4-4-4--4-4-4-4--4-4-4-4--|
B--1-1-1-1--1-1-1-1--1-1-1-1--1-1-1-1--1-1-1-1--1-1-1-1--1-1-1-1--1-1-1-1--|
G--0-0-0-0--0-0-0-0--0-0-0-0--0-0-0-0--1-1-1-1--1-1-1-1--1-1-1-1--1-1-1-1--|
D--2-2-2-2--2-2-2-2--2-2-2-2--2-2-2-2--1-1-1-1--1-1-1-1--1-1-1-1--1-1-1-1--|
A--3-3-3-3--3-3-3-3--3-3-3-3--3-3-3-3--------------------------------------|
E--------------------------------------------------------------------------|


Chorus

   G        F C    G        F C    G        F C    G        F C
                                                     play 4 times
E--3-3-3-3--1-0----3-3-3-3--1-0----3-3-3-3--1-0----3-3-3-3--1-0--|
B--3-3-3-3--1-1----3-3-3-3--1-1----3-3-3-3--1-1----3-3-3-3--1-1--|
G--0-0-0-0--2-0----0-0-0-0--2-0----0-0-0-0--2-0----0-0-0-0--2-0--|
D--0-0-0-0--3-2----0-0-0-0--3-2----0-0-0-0--3-2----0-0-0-0--3-2--|
A--2-2-2-2----3----2-2-2-2----3----2-2-2-2----3----2-2-2-2----3--|
E--3-3-3-3---------3-3-3-3---------3-3-3-3---------3-3-3-3-------|

   F                                   C

E--1-1-1-1--1-1-1-1--1-1-1-1--1-1-1-1--0-0-0-0--0-0-0-0--0-0-0-0--0-0-0-0--|
B--1-1-1-1--1-1-1-1--1-1-1-1--1-1-1-1--1-1-1-1--1-1-1-1--1-1-1-1--1-1-1-1--|
G--2-2-2-2--2-2-2-2--2-2-2-2--2-2-2-2--0-0-0-0--0-0-0-0--0-0-0-0--0-0-0-0--|
D--3-3-3-3--3-3-3-3--3-3-3-3--3-3-3-3--2-2-2-2--2-2-2-2--2-2-2-2--2-2-2-2--|
A--------------------------------------3-3-3-3--3-3-3-3--3-3-3-3--3-3-3-3--|
E--------------------------------------------------------------------------|

   G        F C    G        F C

E--3-3-3-3--1-0----3-3-3-3--1-0--|
B--3-3-3-3--1-1----3-3-3-3--1-1--|
G--0-0-0-0--2-0----0-0-0-0--2-0--|
D--0-0-0-0--3-2----0-0-0-0--3-2--|
A--2-2-2-2----3----2-2-2-2----3--|
E--3-3-3-3---------3-3-3-3-------|

   F                                   C

E--1-1-1-1--1-1-1-1--1-1-1-1--1-1-1-1--0-0-0-0--0-0-0-0--0-0-0-0--0-0-0-0--2--|
B--1-1-1-1--1-1-1-1--1-1-1-1--1-1-1-1--1-1-1-1--1-1-1-1--1-1-1-1--1-1-1-1--3--|
G--2-2-2-2--2-2-2-2--2-2-2-2--2-2-2-2--0-0-0-0--0-0-0-0--0-0-0-0--0-0-0-0--2--|
D--3-3-3-3--3-3-3-3--3-3-3-3--3-3-3-3--2-2-2-2--2-2-2-2--2-2-2-2--2-2-2-2--0--|
A--------------------------------------3-3-3-3--3-3-3-3--3-3-3-3--3-3-3-3-----|
E-----------------------------------------------------------------------------|
            
Submit corrections


        Tuesday Afternoon lessons Hard to play? Try these video lessons and learn fast Tuesday Afternoon lessons
        
↑ Back to top | Tablatures and chords for acoustic guitar and electric guitar, ukulele, drums are parodies/interpretations of the original songs. You may use it for private study, scholarship, research or language learning purposes only