» » »

Moody Blues - Other Side Of Life Tabs

Artists:  A B C D E F G H I J K L M N O P Q R S T U V W X Y Z # 

Other Side Of Life Tabs

(ver. 2) Click to play this song!
Moody Blues
 Rating:
4/5 (4 votes)

 Other Side Of Life lessons Tabs too difficult? Try these video lessons and learn fast
 
                
Solo starts at about 4'28"
----------------------------------------------15-14--------12-----------|
----------------------------15-15--15--15---12---------------15---------|
-12-14b16r14p12-14b16--14h16---------16-------------14-12---------------|

4'38"
-15-17b19r17p15-17-19--17-19-22-22--22p19-22---|
-----------------------------------------------|
-----------------------------------------------|
-----------------------------------------------|
-----------------------------------------------|
-----------------------------------------------|

4'43"
---15--15-14--14-12--12---------------------|
-12--12-----12-----12---15p12h15-15b17~~~---|
--------------------------------------------|
--------------------------------------------|
--------------------------------------------|
--------------------------------------------|

This should be accurate. I hope it's of some use.

-KEW
            
Submit corrections


        Other Side Of Life lessons Hard to play? Try these video lessons and learn fast Other Side Of Life lessons
        
↑ Back to top | Tablatures and chords for acoustic guitar and electric guitar, ukulele, drums are parodies/interpretations of the original songs. You may use it for private study, scholarship, research or language learning purposes only