» » »

Montgomery Gentry - Wanted Dead Or Alive Tabs

Artists:  A B C D E F G H I J K L M N O P Q R S T U V W X Y Z # 

Wanted Dead Or Alive Tabs

(ver. 1) Click to play this song!
Montgomery Gentry
 Rating:
4/5 (4 votes)

 Wanted Dead Or Alive lessons Tabs too difficult? Try these video lessons and learn fast
 
                Key:

b   =   bend                               h   =   hammer-on

p   =   pulloff                            pm  =   palm mute

br  =   bend & release                     x   =   dead note

/   =   slide up                           \   =   slide down

~   =   vibrato                            nh  =   Natural Harmonic

ah  =   Artificial Harmonic		   pbr =   pre-bend & release

bh  =   Bend and hold			   rb  =   Release bend

***********************************************************************
NOTE:  Tune guitar down one full step (DGCFAD)

Intro:

E--0--0--1p0--------0--0--1p0--------0h1-1-0-------13---------12---
B--3---------3-1----3---------3-1----3---3-3-----------------------
G--2-------------2--2-------------2--2---2-2----14----14---12----12
D--0----------------0----------------0---0-0--0----------0---------
A------------------------------------------------------------------
E------------------------------------------------------------------



E-------10--------8-------6-------5----3-1--------13---------12----
B--------------------------------------0-3-------------------------
G----10----10---9---9---7---7---5---5--4-2-----14----14---12----12-
D--0----------0-------0-------0--------0-0---0----------0----------
A------------------------------------------------------------------
E------------------------------------------------------------------

                                               REPEAT 4 TIMES
                                              [--------------]
E-------10--------8-------6-------5----3-1-------------------------
B--------------------------------------0-3-------------------------
G----10----10---9---9---7---7---5---5--4-2-------------------------
D--0----------0-------0-------2--------0-0-----------0-3b-0--------
A---------------------------------------------0-0-3b---------------
E------------------------------------------------------------------
            
Submit corrections


        Wanted Dead Or Alive lessons Hard to play? Try these video lessons and learn fast Wanted Dead Or Alive lessons
        
↑ Back to top | Tablatures and chords for acoustic guitar and electric guitar, ukulele, drums are parodies/interpretations of the original songs. You may use it for private study, scholarship, research or language learning purposes only