» » »

Montgomery Gentry - Tattoos And Scars Tabs

Artists:  A B C D E F G H I J K L M N O P Q R S T U V W X Y Z # 

Tattoos And Scars Tabs

(ver. 1) Click to play this song!
Montgomery Gentry
 Rating:
4/5 (4 votes)

 Tattoos And Scars lessons Tabs too difficult? Try these video lessons and learn fast
 
                Key:

h: Hammer	p:  Pull Off	/:  Slide	b: Bend

br: Bend and release	~~~:  Vibrato	x: Muted string

bh: Bend and Hold	rb:  Release Bend
*******************************************************************
Chord Key:

C: x3201x	  C/B:  x2001x
Am7:  x0201x	G/C:  32001x
F:  13321x	Dm:  x00231	
G:  320003	Csus: x3203x
**************************************************************

Intro:
  C              * *          Repeat intro twice
E------------------------------------------------------------------
B--------1---------1-----------------------------------------------
G------0----0----0----0--------------------------------------------
D----2--------2-3-2-3----------------------------------------------
A--3-------3-----3-3-----------------------------------------------
E------------------------------------------------------------------

** Unfortunately, notepad wont allow me to place half a hashmark,
but the two notes below the stars (the open G and the C note on 
the 1st fret on the B string) should be played a hair sooner than 
they are transcribed.  Once you listen to the song, you will hear 
what Im talking about. 

Verses:

 C                  C/B           Am7             G/C
E------------------------------------------------------------------
B-------1---------------1---------------1---------------1----------
G---0-------0-------0-------0---0---0-------0---0-----0-----0------
D-----2-------3-2-----0-------0-------2-------2-----0-----0---0----
A-3-------3-------2-------2-------0-------0------------------------
E-------------------------------------------------3----------------

  F             C               Dm              G/C
E------------------------------------------------------------------
B-------1-------------1-------------------0-----------1-----0-1----
G---2-------2-----0-------0---0-------2-----------0-------0--------
D-----3-------3-----2---2---2-----0-----0-----0-----0--------------
A---------------3---------------0---0-------0----------------------
E-1-------1-------------------------------------3-------3----------

  C                 C/B           Am7             G/C
E------------------------------------------------------------------
B-------1---------------1---------------1---------------1----------
G---0-------0---0---0-------0---0---0-------0---0-----0-----0------
D-----2-------3-------0-------0-------2-------2-----0-----0---0----
A-3-------3-------2-------2-------0-------0------------------------
E-------------------------------------------------3----------------

  F             C               G/C             C
E------------------------------------------------------------------
B-------1-------------1---------------1---------------1------------
G---2-------2-----0-------0---0---0-------0---0---0------0--------0
D-----3-------3-----2---2---2-------0-------0-------2------2-3-2-2-
A---------------3-------------------------------3------3------3-3--
E-1-------1---------------------3-------3--------------------------


1st and 2nd Chorus:
  F               C               G/C            C    Csus C
E------------------------------------------------------------------
B-------1---------------1---------------1------------1-1h3-1-------
G---2-------2---0---0-------0---0---0------0---0---0---------0-----
D-----3-------3-------2-------2-------0------0---------------------
A-----------------3-------3----------------------3-----------------
E-1-------1-----------------------3-------3------------------------

  F             C               Dm              G/C
E------------------------------------------------------------------
B-------1-------------1---------------3---------------1-----0-1----
G---2-------2-----0-------0---0---2-------2---2---0-------0--------
D-----3-------3-----2---2---2-------0-------0-------0--------------
A---------------3---------------0-------0--------------------------
E-1-------1-------------------------------------3-------3----------

 C                  C/B           Am7             G/C
E------------------------------------------------------------------
B-------1---------------1---------------1---------------1----------
G---0-------0-------0-------0---0---0-------0---0-----0-----0------
D-----2-------3-2-----0-------0-------2-------2-----0-----0---0----
A-3-------3-------2-------2-------0-------0------------------------
E-------------------------------------------------3----------------

  F             G/C             C             * *
E------------------------------------------------------------------   
B-------1-------------1---------------1---------1----------1-------  
G---2-------2-------0----0---0------0----0----0----0-----0----0----    
D-----3-------3---0--------0------2--------2-3-2-3-----2--------2-3 
A-------------------------------3-------3-----3-3----3-------3----- 
E-1-------1-----3-------3------------------------------------------ 

   * *
E----------
B----1-----
G--0----0--
D---2-3----
A--3-3-----
E----------

During the solo:

 C                  C/B           Am7             G/C
E------------------------------------------------------------------
B-------1---------------1---------------1---------------1----------
G---0-------0-------0-------0---0---0-------0---0-----0-----0------
D-----2-------3-2-----0-------0-------2-------2-----0-----0---0----
A-3-------3-------2-------2-------0-------0------------------------
E-------------------------------------------------3----------------

  F             G/C             C             * *
E------------------------------------------------------------------   
B-------1-------------1---------------1---------1------------------  
G---2-------2-------0----0---0------0----0----0----0---------------    
D-----3-------3---0--------0------2--------2-3-2-3----------------- 
A-------------------------------3-------3-----3-3------------------ 
E-1-------1-----3-------3------------------------------------------

Bridge:

  F               C               G/C            C    Csus C
E------------------------------------------------------------------
B-------1---------------1---------------1------------1-1h3-1-------
G---2-------2---0---0-------0---0---0------0---0---0---------0-----
D-----3-------3-------2-------2-------0------0---------------------
A-----------------3-------3----------------------3-----------------
E-1-------1-----------------------3-------3------------------------

  F             C               Dm              C
E------------------------------------------------------------------
B-------1-------------1---------------3---------------1-----0-1----
G---2-------2-----0-------0---0---2-------2---2---0-------0--------
D-----3-------3-----2---2---2-------0-------0-------2--------------
A---------------3---------------0-------0-------3-------3----------
E-1-------1--------------------------------------------------------

3rd Chorus:

 C                  C/B           Am7             G/C
E------------------------------------------------------------------
B-------1---------------1---------------1---------------1----------
G---0-------0-------0-------0---0---0-------0---0-----0-----0------
D-----2-------3-2-----0-------0-------2-------2-----0-----0---0----
A-3-------3-------2-------2-------0-------0------------------------
E-------------------------------------------------3----------------

  F             G/C             C             * *
E------------------------------------------------------------------   
B-------1-------------1---------------1---------1------------------  
G---2-------2-------0----0---0------0----0----0----0---------------    
D-----3-------3---0--------0------2--------2-3-2-3----------------- 
A-------------------------------3-------3-----3-3-------
            
Submit corrections


        Tattoos And Scars lessons Hard to play? Try these video lessons and learn fast Tattoos And Scars lessons
        
↑ Back to top | Tablatures and chords for acoustic guitar and electric guitar, ukulele, drums are parodies/interpretations of the original songs. You may use it for private study, scholarship, research or language learning purposes only