» » »

Montgomery Gentry - Roll With Me Tabs

Artists:  A B C D E F G H I J K L M N O P Q R S T U V W X Y Z # 

Roll With Me Tabs

(ver. 1) Click to play this song!
Montgomery Gentry
 Rating:
4/5 (4 votes)

 Roll With Me lessons Tabs too difficult? Try these video lessons and learn fast
 
                E------------------------------------------------
B-----15-----------------------------------------
G-14b----14p12-------------------14--------------
D--------------14/16-14/12-14/16----14p12--------
A-----------------------------------------14-12--
E------------------------------------------------

E------------------------------------------------
B-----15-----------------------------------------
G-14b----14p12-------14-16-14--------------------
D--------------14/16----------16/14-12-14br------
A------------------------------------------------
E------------------------------------------------
            
Submit corrections


        Roll With Me lessons Hard to play? Try these video lessons and learn fast Roll With Me lessons
        
↑ Back to top | Tablatures and chords for acoustic guitar and electric guitar, ukulele, drums are parodies/interpretations of the original songs. You may use it for private study, scholarship, research or language learning purposes only