» » »

Montgomery Gentry - Lonely And Gone(pt. ) Tabs

Artists:  A B C D E F G H I J K L M N O P Q R S T U V W X Y Z # 

Lonely And Gone(pt. ) Tabs

(ver. 1) Click to play this song!
Montgomery Gentry
 Rating:
4/5 (4 votes)

 Lonely And Gone(pt. ) lessons Tabs too difficult? Try these video lessons and learn fast
 
                "(2)
(Intro)
E------------------------------0---------------
B------------------------------0---------------
G------------------------------1---------------
D------------------------------2---------------
A-2-4-5--4-2-0-----------------2---------------
E------------------2b^0--------0---------------

(Vers, 2x)
E--------------------------------------------------------
B--------------------------------------------------------
G--------9---------7-----------------2----------9-------
D-7^9----9-----5^7—7^9^7-------------2-----7^9--9----------
A-------------------------------2^4--0-------------------
E--------------------------------------------------------

(I never saw…(1:31))
E--------------------0--------------------
B--------------------0--------------------
G--------------------1--------------------
D--------------------2--------------------
A--------------------2--------7-7-7-7-----
E---3b-3b-3b-0----0----------------------
 - Geetar
"            
Submit corrections


        Lonely And Gone(pt. ) lessons Hard to play? Try these video lessons and learn fast Lonely And Gone(pt. ) lessons
        
↑ Back to top | Tablatures and chords for acoustic guitar and electric guitar, ukulele, drums are parodies/interpretations of the original songs. You may use it for private study, scholarship, research or language learning purposes only