» » »

Montgomery Gentry - If It's The Last Thing I Do Tabs

Artists:  A B C D E F G H I J K L M N O P Q R S T U V W X Y Z # 

If It's The Last Thing I Do Tabs

(ver. 1) Click to play this song!
Montgomery Gentry
 Rating:
4/5 (4 votes)

 If It's The Last Thing I Do lessons Tabs too difficult? Try these video lessons and learn fast
 
                This is my first tab ever.  I'm pretty sure it's right...lemme know!


e------------------------------------------------------------|
b--3---1----------------------------3------------------------|
g--2---0---5---2------------------2---2-----0--0---0-0---0---|
d----------3---0--------0--2br--0---------2----2br-0-0-3-0---|repeat once
a-----------------0--2------------------3--------------------|
E------------------------------------------------------------|


to get the higher sound you can play this instead:

e-/7~-/5~--5---2-|
b-/8~-/6~--6---3-|
g----------5---2-|



It sounds best when you have two guitars each playing a part
            
Submit corrections


        If It's The Last Thing I Do lessons Hard to play? Try these video lessons and learn fast If It's The Last Thing I Do lessons
        
↑ Back to top | Tablatures and chords for acoustic guitar and electric guitar, ukulele, drums are parodies/interpretations of the original songs. You may use it for private study, scholarship, research or language learning purposes only